  0
SECTION
  2
HEADER
  9
$ACADVER
  1
AC1009
  9
$EXTMIN
 10
0.0
 20
0.0
 30
0.0
  9
$EXTMAX
 10
1000.0
 20
1000.0
 30
0.0
  9
$FILLMODE
 70
 0
  9
$SPLFRAME
 70
 1
  0
ENDSEC
  0
SECTION
  2
TABLES
  0
TABLE
  2
LAYER
 70
1
  0
LAYER
  2
0
 70
     0
 62
     7
  6
CONTINUOUS
  0
ENDTAB
  0
ENDSEC
  0
SECTION
  2
ENTITIES
  0
POLYLINE
  8
0
 62
     0
 66
     1
 10
0
 20
0
 30
0.0
 70
     1
 40
0
 41
0
  0
VERTEX
  8
0
 10
3.815
 20
3.70454
 30
0.0
 40
0
 41
0
  0
VERTEX
  8
0
 10
3.77289
 20
3.7111
 30
0.0
 40
0
 41
0
  0
VERTEX
  8
0
 10
3.73443
 20
3.71397
 30
0.0
 40
0
 41
0
  0
VERTEX
  8
0
 10
3.70318
 20
3.71739
 30
0.0
 40
0
 41
0
  0
VERTEX
  8
0
 10
3.68425
 20
3.72846
 30
0.0
 40
0
 41
0
  0
VERTEX
  8
0
 10
3.67567
 20
3.73643
 30
0.0
 40
0
 41
0
  0
VERTEX
  8
0
 10
3.66862
 20
3.73921
 30
0.0
 40
0
 41
0
  0
VERTEX
  8
0
 10
3.65956
 20
3.73687
 30
0.0
 40
0
 41
0
  0
VERTEX
  8
0
 10
3.64481
 20
3.72954
 30
0.0
 40
0
 41
0
  0
VERTEX
  8
0
 10
3.6244
 20
3.72119
 30
0.0
 40
0
 41
0
  0
VERTEX
  8
0
 10
3.61094
 20
3.7194
 30
0.0
 40
0
 41
0
  0
VERTEX
  8
0
 10
3.60454
 20
3.72814
 30
0.0
 40
0
 41
0
  0
VERTEX
  8
0
 10
3.60286
 20
3.74457
 30
0.0
 40
0
 41
0
  0
VERTEX
  8
0
 10
3.60568
 20
3.7634
 30
0.0
 40
0
 41
0
  0
VERTEX
  8
0
 10
3.6129
 20
3.77903
 30
0.0
 40
0
 41
0
  0
VERTEX
  8
0
 10
3.62001
 20
3.79178
 30
0.0
 40
0
 41
0
  0
VERTEX
  8
0
 10
3.62299
 20
3.80371
 30
0.0
 40
0
 41
0
  0
VERTEX
  8
0
 10
3.62663
 20
3.81506
 30
0.0
 40
0
 41
0
  0
VERTEX
  8
0
 10
3.63553
 20
3.82639
 30
0.0
 40
0
 41
0
  0
VERTEX
  8
0
 10
3.64854
 20
3.8335
 30
0.0
 40
0
 41
0
  0
VERTEX
  8
0
 10
3.66411
 20
3.82058
 30
0.0
 40
0
 41
0
  0
VERTEX
  8
0
 10
3.68321
 20
3.80707
 30
0.0
 40
0
 41
0
  0
VERTEX
  8
0
 10
3.71067
 20
3.80344
 30
0.0
 40
0
 41
0
  0
VERTEX
  8
0
 10
3.74946
 20
3.79926
 30
0.0
 40
0
 41
0
  0
VERTEX
  8
0
 10
3.79997
 20
3.78922
 30
0.0
 40
0
 41
0
  0
VERTEX
  8
0
 10
3.83279
 20
3.78201
 30
0.0
 40
0
 41
0
  0
VERTEX
  8
0
 10
3.85824
 20
3.77869
 30
0.0
 40
0
 41
0
  0
VERTEX
  8
0
 10
3.88303
 20
3.77892
 30
0.0
 40
0
 41
0
  0
VERTEX
  8
0
 10
3.91406
 20
3.78228
 30
0.0
 40
0
 41
0
  0
VERTEX
  8
0
 10
3.97217
 20
3.78706
 30
0.0
 40
0
 41
0
  0
VERTEX
  8
0
 10
4.03444
 20
3.78825
 30
0.0
 40
0
 41
0
  0
VERTEX
  8
0
 10
4.12088
 20
3.78847
 30
0.0
 40
0
 41
0
  0
VERTEX
  8
0
 10
4.19797
 20
3.79237
 30
0.0
 40
0
 41
0
  0
VERTEX
  8
0
 10
4.26085
 20
3.79958
 30
0.0
 40
0
 41
0
  0
VERTEX
  8
0
 10
4.30469
 20
3.80974
 30
0.0
 40
0
 41
0
  0
VERTEX
  8
0
 10
4.33931
 20
3.81982
 30
0.0
 40
0
 41
0
  0
VERTEX
  8
0
 10
4.36578
 20
3.824
 30
0.0
 40
0
 41
0
  0
VERTEX
  8
0
 10
4.38917
 20
3.82921
 30
0.0
 40
0
 41
0
  0
VERTEX
  8
0
 10
4.41644
 20
3.84164
 30
0.0
 40
0
 41
0
  0
VERTEX
  8
0
 10
4.44412
 20
3.85428
 30
0.0
 40
0
 41
0
  0
VERTEX
  8
0
 10
4.4661
 20
3.85499
 30
0.0
 40
0
 41
0
  0
VERTEX
  8
0
 10
4.49436
 20
3.85514
 30
0.0
 40
0
 41
0
  0
VERTEX
  8
0
 10
4.53787
 20
3.86083
 30
0.0
 40
0
 41
0
  0
VERTEX
  8
0
 10
4.58149
 20
3.86957
 30
0.0
 40
0
 41
0
  0
VERTEX
  8
0
 10
4.61029
 20
3.87879
 30
0.0
 40
0
 41
0
  0
VERTEX
  8
0
 10
4.63374
 20
3.88672
 30
0.0
 40
0
 41
0
  0
VERTEX
  8
0
 10
4.67199
 20
3.896
 30
0.0
 40
0
 41
0
  0
VERTEX
  8
0
 10
4.71257
 20
3.90647
 30
0.0
 40
0
 41
0
  0
VERTEX
  8
0
 10
4.74175
 20
3.9171
 30
0.0
 40
0
 41
0
  0
VERTEX
  8
0
 10
4.77447
 20
3.93078
 30
0.0
 40
0
 41
0
  0
VERTEX
  8
0
 10
4.82785
 20
3.95019
 30
0.0
 40
0
 41
0
  0
VERTEX
  8
0
 10
4.88758
 20
3.97032
 30
0.0
 40
0
 41
0
  0
VERTEX
  8
0
 10
4.93946
 20
3.98617
 30
0.0
 40
0
 41
0
  0
VERTEX
  8
0
 10
4.977
 20
3.99669
 30
0.0
 40
0
 41
0
  0
VERTEX
  8
0
 10
4.99642
 20
3.97493
 30
0.0
 40
0
 41
0
  0
VERTEX
  8
0
 10
5.01036
 20
3.95443
 30
0.0
 40
0
 41
0
  0
VERTEX
  8
0
 10
5.01378
 20
3.93619
 30
0.0
 40
0
 41
0
  0
VERTEX
  8
0
 10
5.007
 20
3.92404
 30
0.0
 40
0
 41
0
  0
VERTEX
  8
0
 10
4.98719
 20
3.91157
 30
0.0
 40
0
 41
0
  0
VERTEX
  8
0
 10
4.95008
 20
3.89692
 30
0.0
 40
0
 41
0
  0
VERTEX
  8
0
 10
4.89165
 20
3.87793
 30
0.0
 40
0
 41
0
  0
VERTEX
  8
0
 10
4.86535
 20
3.86589
 30
0.0
 40
0
 41
0
  0
VERTEX
  8
0
 10
4.83583
 20
3.84728
 30
0.0
 40
0
 41
0
  0
VERTEX
  8
0
 10
4.81212
 20
3.83083
 30
0.0
 40
0
 41
0
  0
VERTEX
  8
0
 10
4.79981
 20
3.824
 30
0.0
 40
0
 41
0
  0
VERTEX
  8
0
 10
4.78765
 20
3.81976
 30
0.0
 40
0
 41
0
  0
VERTEX
  8
0
 10
4.76465
 20
3.80951
 30
0.0
 40
0
 41
0
  0
VERTEX
  8
0
 10
4.73828
 20
3.79981
 30
0.0
 40
0
 41
0
  0
VERTEX
  8
0
 10
4.72433
 20
3.8029
 30
0.0
 40
0
 41
0
  0
VERTEX
  8
0
 10
4.71272
 20
3.80572
 30
0.0
 40
0
 41
0
  0
VERTEX
  8
0
 10
4.69526
 20
3.79454
 30
0.0
 40
0
 41
0
  0
VERTEX
  8
0
 10
4.66683
 20
3.77653
 30
0.0
 40
0
 41
0
  0
VERTEX
  8
0
 10
4.63081
 20
3.764
 30
0.0
 40
0
 41
0
  0
VERTEX
  8
0
 10
4.58431
 20
3.75629
 30
0.0
 40
0
 41
0
  0
VERTEX
  8
0
 10
4.52474
 20
3.75271
 30
0.0
 40
0
 41
0
  0
VERTEX
  8
0
 10
4.44243
 20
3.74804
 30
0.0
 40
0
 41
0
  0
VERTEX
  8
0
 10
4.36019
 20
3.73969
 30
0.0
 40
0
 41
0
  0
VERTEX
  8
0
 10
4.2819
 20
3.73085
 30
0.0
 40
0
 41
0
  0
VERTEX
  8
0
 10
4.20931
 20
3.72488
 30
0.0
 40
0
 41
0
  0
VERTEX
  8
0
 10
4.14535
 20
3.72081
 30
0.0
 40
0
 41
0
  0
VERTEX
  8
0
 10
4.09375
 20
3.71631
 30
0.0
 40
0
 41
0
  0
VERTEX
  8
0
 10
4.04779
 20
3.71078
 30
0.0
 40
0
 41
0
  0
VERTEX
  8
0
 10
4.00097
 20
3.70344
 30
0.0
 40
0
 41
0
  0
VERTEX
  8
0
 10
3.90479
 20
3.69504
 30
0.0
 40
0
 41
0
  0
VERTEX
  8
0
 10
3.815
 20
3.70454
 30
0.0
 40
0
 41
0
  0
SEQEND
 8
0
  0
POLYLINE
  8
0
 62
     0
 66
     1
 10
0
 20
0
 30
0.0
 70
     1
 40
0
 41
0
  0
VERTEX
  8
0
 10
3.41726
 20
3.72771
 30
0.0
 40
0
 41
0
  0
VERTEX
  8
0
 10
3.38112
 20
3.73296
 30
0.0
 40
0
 41
0
  0
VERTEX
  8
0
 10
3.32807
 20
3.73763
 30
0.0
 40
0
 41
0
  0
VERTEX
  8
0
 10
3.26183
 20
3.74278
 30
0.0
 40
0
 41
0
  0
VERTEX
  8
0
 10
3.21517
 20
3.7494
 30
0.0
 40
0
 41
0
  0
VERTEX
  8
0
 10
3.176
 20
3.75999
 30
0.0
 40
0
 41
0
  0
VERTEX
  8
0
 10
3.13232
 20
3.77686
 30
0.0
 40
0
 41
0
  0
VERTEX
  8
0
 10
3.10667
 20
3.78722
 30
0.0
 40
0
 41
0
  0
VERTEX
  8
0
 10
3.08399
 20
3.79568
 30
0.0
 40
0
 41
0
  0
VERTEX
  8
0
 10
3.06668
 20
3.80138
 30
0.0
 40
0
 41
0
  0
VERTEX
  8
0
 10
3.05729
 20
3.80344
 30
0.0
 40
0
 41
0
  0
VERTEX
  8
0
 10
3.03435
 20
3.80806
 30
0.0
 40
0
 41
0
  0
VERTEX
  8
0
 10
2.9975
 20
3.82058
 30
0.0
 40
0
 41
0
  0
VERTEX
  8
0
 10
2.95111
 20
3.83903
 30
0.0
 40
0
 41
0
  0
VERTEX
  8
0
 10
2.89953
 20
3.86139
 30
0.0
 40
0
 41
0
  0
VERTEX
  8
0
 10
2.84717
 20
3.88579
 30
0.0
 40
0
 41
0
  0
VERTEX
  8
0
 10
2.79839
 20
3.91015
 30
0.0
 40
0
 41
0
  0
VERTEX
  8
0
 10
2.75765
 20
3.93261
 30
0.0
 40
0
 41
0
  0
VERTEX
  8
0
 10
2.72922
 20
3.95107
 30
0.0
 40
0
 41
0
  0
VERTEX
  8
0
 10
2.68978
 20
3.9994
 30
0.0
 40
0
 41
0
  0
VERTEX
  8
0
 10
2.69319
 20
4.04921
 30
0.0
 40
0
 41
0
  0
VERTEX
  8
0
 10
2.70751
 20
4.06706
 30
0.0
 40
0
 41
0
  0
VERTEX
  8
0
 10
2.72635
 20
4.06922
 30
0.0
 40
0
 41
0
  0
VERTEX
  8
0
 10
2.75271
 20
4.0549
 30
0.0
 40
0
 41
0
  0
VERTEX
  8
0
 10
2.78976
 20
4.02328
 30
0.0
 40
0
 41
0
  0
VERTEX
  8
0
 10
2.85667
 20
3.96897
 30
0.0
 40
0
 41
0
  0
VERTEX
  8
0
 10
2.93349
 20
3.92557
 30
0.0
 40
0
 41
0
  0
VERTEX
  8
0
 10
3.03315
 20
3.88721
 30
0.0
 40
0
 41
0
  0
VERTEX
  8
0
 10
3.16857
 20
3.84787
 30
0.0
 40
0
 41
0
  0
VERTEX
  8
0
 10
3.20736
 20
3.83838
 30
0.0
 40
0
 41
0
  0
VERTEX
  8
0
 10
3.23861
 20
3.83317
 30
0.0
 40
0
 41
0
  0
VERTEX
  8
0
 10
3.26969
 20
3.83132
 30
0.0
 40
0
 41
0
  0
VERTEX
  8
0
 10
3.30817
 20
3.83208
 30
0.0
 40
0
 41
0
  0
VERTEX
  8
0
 10
3.36344
 20
3.83653
 30
0.0
 40
0
 41
0
  0
VERTEX
  8
0
 10
3.38547
 20
3.84489
 30
0.0
 40
0
 41
0
  0
VERTEX
  8
0
 10
3.39979
 20
3.85514
 30
0.0
 40
0
 41
0
  0
VERTEX
  8
0
 10
3.41601
 20
3.85325
 30
0.0
 40
0
 41
0
  0
VERTEX
  8
0
 10
3.43283
 20
3.83985
 30
0.0
 40
0
 41
0
  0
VERTEX
  8
0
 10
3.449
 20
3.81543
 30
0.0
 40
0
 41
0
  0
VERTEX
  8
0
 10
3.45503
 20
3.80479
 30
0.0
 40
0
 41
0
  0
VERTEX
  8
0
 10
3.46078
 20
3.80035
 30
0.0
 40
0
 41
0
  0
VERTEX
  8
0
 10
3.4694
 20
3.80143
 30
0.0
 40
0
 41
0
  0
VERTEX
  8
0
 10
3.48426
 20
3.80718
 30
0.0
 40
0
 41
0
  0
VERTEX
  8
0
 10
3.51144
 20
3.82368
 30
0.0
 40
0
 41
0
  0
VERTEX
  8
0
 10
3.5409
 20
3.84836
 30
0.0
 40
0
 41
0
  0
VERTEX
  8
0
 10
3.56494
 20
3.86996
 30
0.0
 40
0
 41
0
  0
VERTEX
  8
0
 10
3.57904
 20
3.8789
 30
0.0
 40
0
 41
0
  0
VERTEX
  8
0
 10
3.58974
 20
3.87294
 30
0.0
 40
0
 41
0
  0
VERTEX
  8
0
 10
3.60563
 20
3.8585
 30
0.0
 40
0
 41
0
  0
VERTEX
  8
0
 10
3.62517
 20
3.83817
 30
0.0
 40
0
 41
0
  0
VERTEX
  8
0
 10
3.5709
 20
3.78347
 30
0.0
 40
0
 41
0
  0
VERTEX
  8
0
 10
3.5395
 20
3.75256
 30
0.0
 40
0
 41
0
  0
VERTEX
  8
0
 10
3.51887
 20
3.73583
 30
0.0
 40
0
 41
0
  0
VERTEX
  8
0
 10
3.50131
 20
3.7284
 30
0.0
 40
0
 41
0
  0
VERTEX
  8
0
 10
3.47894
 20
3.72537
 30
0.0
 40
0
 41
0
  0
VERTEX
  8
0
 10
3.44526
 20
3.72467
 30
0.0
 40
0
 41
0
  0
VERTEX
  8
0
 10
3.41726
 20
3.72771
 30
0.0
 40
0
 41
0
  0
SEQEND
 8
0
  0
POLYLINE
  8
0
 62
     0
 66
     1
 10
0
 20
0
 30
0.0
 70
     1
 40
0
 41
0
  0
VERTEX
  8
0
 10
5.07406
 20
4.01774
 30
0.0
 40
0
 41
0
  0
VERTEX
  8
0
 10
5.07383
 20
4.03424
 30
0.0
 40
0
 41
0
  0
VERTEX
  8
0
 10
5.08257
 20
4.05024
 30
0.0
 40
0
 41
0
  0
VERTEX
  8
0
 10
5.10308
 20
4.06928
 30
0.0
 40
0
 41
0
  0
VERTEX
  8
0
 10
5.13851
 20
4.09506
 30
0.0
 40
0
 41
0
  0
VERTEX
  8
0
 10
5.17031
 20
4.12272
 30
0.0
 40
0
 41
0
  0
VERTEX
  8
0
 10
5.20936
 20
4.16385
 30
0.0
 40
0
 41
0
  0
VERTEX
  8
0
 10
5.24533
 20
4.20671
 30
0.0
 40
0
 41
0
  0
VERTEX
  8
0
 10
5.2679
 20
4.23975
 30
0.0
 40
0
 41
0
  0
VERTEX
  8
0
 10
5.28174
 20
4.2761
 30
0.0
 40
0
 41
0
  0
VERTEX
  8
0
 10
5.28575
 20
4.32015
 30
0.0
 40
0
 41
0
  0
VERTEX
  8
0
 10
5.27957
 20
4.38558
 30
0.0
 40
0
 41
0
  0
VERTEX
  8
0
 10
5.26297
 20
4.48579
 30
0.0
 40
0
 41
0
  0
VERTEX
  8
0
 10
5.25157
 20
4.54986
 30
0.0
 40
0
 41
0
  0
VERTEX
  8
0
 10
5.24067
 20
4.61257
 30
0.0
 40
0
 41
0
  0
VERTEX
  8
0
 10
5.23144
 20
4.66689
 30
0.0
 40
0
 41
0
  0
VERTEX
  8
0
 10
5.22515
 20
4.70551
 30
0.0
 40
0
 41
0
  0
VERTEX
  8
0
 10
5.21181
 20
4.77322
 30
0.0
 40
0
 41
0
  0
VERTEX
  8
0
 10
5.1926
 20
4.83594
 30
0.0
 40
0
 41
0
  0
VERTEX
  8
0
 10
5.16374
 20
4.90369
 30
0.0
 40
0
 41
0
  0
VERTEX
  8
0
 10
5.12164
 20
4.98639
 30
0.0
 40
0
 41
0
  0
VERTEX
  8
0
 10
5.08419
 20
5.05821
 30
0.0
 40
0
 41
0
  0
VERTEX
  8
0
 10
5.06131
 20
5.10736
 30
0.0
 40
0
 41
0
  0
VERTEX
  8
0
 10
5.05094
 20
5.13851
 30
0.0
 40
0
 41
0
  0
VERTEX
  8
0
 10
5.05126
 20
5.15642
 30
0.0
 40
0
 41
0
  0
VERTEX
  8
0
 10
5.06381
 20
5.16465
 30
0.0
 40
0
 41
0
  0
VERTEX
  8
0
 10
5.09164
 20
5.16992
 30
0.0
 40
0
 41
0
  0
VERTEX
  8
0
 10
5.11236
 20
5.17117
 30
0.0
 40
0
 41
0
  0
VERTEX
  8
0
 10
5.12853
 20
5.16917
 30
0.0
 40
0
 41
0
  0
VERTEX
  8
0
 10
5.14507
 20
5.1626
 30
0.0
 40
0
 41
0
  0
VERTEX
  8
0
 10
5.16683
 20
5.15028
 30
0.0
 40
0
 41
0
  0
VERTEX
  8
0
 10
5.21588
 20
5.11247
 30
0.0
 40
0
 41
0
  0
VERTEX
  8
0
 10
5.25537
 20
5.06017
 30
0.0
 40
0
 41
0
  0
VERTEX
  8
0
 10
5.29042
 20
4.98454
 30
0.0
 40
0
 41
0
  0
VERTEX
  8
0
 10
5.32622
 20
4.87668
 30
0.0
 40
0
 41
0
  0
VERTEX
  8
0
 10
5.36317
 20
4.74343
 30
0.0
 40
0
 41
0
  0
VERTEX
  8
0
 10
5.38803
 20
4.63021
 30
0.0
 40
0
 41
0
  0
VERTEX
  8
0
 10
5.40207
 20
4.52968
 30
0.0
 40
0
 41
0
  0
VERTEX
  8
0
 10
5.40679
 20
4.43435
 30
0.0
 40
0
 41
0
  0
VERTEX
  8
0
 10
5.4036
 20
4.39014
 30
0.0
 40
0
 41
0
  0
VERTEX
  8
0
 10
5.39513
 20
4.34006
 30
0.0
 40
0
 41
0
  0
VERTEX
  8
0
 10
5.38303
 20
4.29253
 30
0.0
 40
0
 41
0
  0
VERTEX
  8
0
 10
5.36914
 20
4.25608
 30
0.0
 40
0
 41
0
  0
VERTEX
  8
0
 10
5.33089
 20
4.18278
 30
0.0
 40
0
 41
0
  0
VERTEX
  8
0
 10
5.30214
 20
4.1339
 30
0.0
 40
0
 41
0
  0
VERTEX
  8
0
 10
5.27826
 20
4.10249
 30
0.0
 40
0
 41
0
  0
VERTEX
  8
0
 10
5.25472
 20
4.0816
 30
0.0
 40
0
 41
0
  0
VERTEX
  8
0
 10
5.2296
 20
4.06435
 30
0.0
 40
0
 41
0
  0
VERTEX
  8
0
 10
5.2169
 20
4.05718
 30
0.0
 40
0
 41
0
  0
VERTEX
  8
0
 10
5.20708
 20
4.05181
 30
0.0
 40
0
 41
0
  0
VERTEX
  8
0
 10
5.18892
 20
4.03879
 30
0.0
 40
0
 41
0
  0
VERTEX
  8
0
 10
5.16629
 20
4.02512
 30
0.0
 40
0
 41
0
  0
VERTEX
  8
0
 10
5.13656
 20
4.01124
 30
0.0
 40
0
 41
0
  0
VERTEX
  8
0
 10
5.10726
 20
4.00038
 30
0.0
 40
0
 41
0
  0
VERTEX
  8
0
 10
5.08621
 20
3.99571
 30
0.0
 40
0
 41
0
  0
VERTEX
  8
0
 10
5.07943
 20
4.00211
 30
0.0
 40
0
 41
0
  0
VERTEX
  8
0
 10
5.07406
 20
4.01774
 30
0.0
 40
0
 41
0
  0
SEQEND
 8
0
  0
POLYLINE
  8
0
 62
     0
 66
     1
 10
0
 20
0
 30
0.0
 70
     1
 40
0
 41
0
  0
VERTEX
  8
0
 10
2.60058
 20
4.08111
 30
0.0
 40
0
 41
0
  0
VERTEX
  8
0
 10
2.58176
 20
4.10118
 30
0.0
 40
0
 41
0
  0
VERTEX
  8
0
 10
2.56087
 20
4.14301
 30
0.0
 40
0
 41
0
  0
VERTEX
  8
0
 10
2.54482
 20
4.18343
 30
0.0
 40
0
 41
0
  0
VERTEX
  8
0
 10
2.53629
 20
4.21175
 30
0.0
 40
0
 41
0
  0
VERTEX
  8
0
 10
2.5344
 20
4.23226
 30
0.0
 40
0
 41
0
  0
VERTEX
  8
0
 10
2.53819
 20
4.24918
 30
0.0
 40
0
 41
0
  0
VERTEX
  8
0
 10
2.53592
 20
4.28358
 30
0.0
 40
0
 41
0
  0
VERTEX
  8
0
 10
2.53196
 20
4.29508
 30
0.0
 40
0
 41
0
  0
VERTEX
  8
0
 10
2.53201
 20
4.31049
 30
0.0
 40
0
 41
0
  0
VERTEX
  8
0
 10
2.53651
 20
4.33479
 30
0.0
 40
0
 41
0
  0
VERTEX
  8
0
 10
2.546
 20
4.37272
 30
0.0
 40
0
 41
0
  0
VERTEX
  8
0
 10
2.5905
 20
4.52387
 30
0.0
 40
0
 41
0
  0
VERTEX
  8
0
 10
2.64117
 20
4.65875
 30
0.0
 40
0
 41
0
  0
VERTEX
  8
0
 10
2.7009
 20
4.78435
 30
0.0
 40
0
 41
0
  0
VERTEX
  8
0
 10
2.77268
 20
4.90756
 30
0.0
 40
0
 41
0
  0
VERTEX
  8
0
 10
2.79432
 20
4.94303
 30
0.0
 40
0
 41
0
  0
VERTEX
  8
0
 10
2.81646
 20
4.98139
 30
0.0
 40
0
 41
0
  0
VERTEX
  8
0
 10
2.83649
 20
5.01796
 30
0.0
 40
0
 41
0
  0
VERTEX
  8
0
 10
2.85183
 20
5.04812
 30
0.0
 40
0
 41
0
  0
VERTEX
  8
0
 10
2.88385
 20
5.10867
 30
0.0
 40
0
 41
0
  0
VERTEX
  8
0
 10
2.90944
 20
5.13992
 30
0.0
 40
0
 41
0
  0
VERTEX
  8
0
 10
2.93001
 20
5.14301
 30
0.0
 40
0
 41
0
  0
VERTEX
  8
0
 10
2.947
 20
5.11897
 30
0.0
 40
0
 41
0
  0
VERTEX
  8
0
 10
2.95529
 20
5.09928
 30
0.0
 40
0
 41
0
  0
VERTEX
  8
0
 10
2.97754
 20
5.13032
 30
0.0
 40
0
 41
0
  0
VERTEX
  8
0
 10
2.99257
 20
5.15489
 30
0.0
 40
0
 41
0
  0
VERTEX
  8
0
 10
2.99083
 20
5.1645
 30
0.0
 40
0
 41
0
  0
VERTEX
  8
0
 10
2.95242
 20
5.17524
 30
0.0
 40
0
 41
0
  0
VERTEX
  8
0
 10
2.89708
 20
5.18799
 30
0.0
 40
0
 41
0
  0
VERTEX
  8
0
 10
2.84093
 20
5.19933
 30
0.0
 40
0
 41
0
  0
VERTEX
  8
0
 10
2.80007
 20
5.20568
 30
0.0
 40
0
 41
0
  0
VERTEX
  8
0
 10
2.75749
 20
5.21072
 30
0.0
 40
0
 41
0
  0
VERTEX
  8
0
 10
2.71778
 20
5.21653
 30
0.0
 40
0
 41
0
  0
VERTEX
  8
0
 10
2.69547
 20
5.21983
 30
0.0
 40
0
 41
0
  0
VERTEX
  8
0
 10
2.66265
 20
5.22401
 30
0.0
 40
0
 41
0
  0
VERTEX
  8
0
 10
2.62369
 20
5.22863
 30
0.0
 40
0
 41
0
  0
VERTEX
  8
0
 10
2.58311
 20
5.23307
 30
0.0
 40
0
 41
0
  0
VERTEX
  8
0
 10
2.48762
 20
5.24744
 30
0.0
 40
0
 41
0
  0
VERTEX
  8
0
 10
2.36083
 20
5.27186
 30
0.0
 40
0
 41
0
  0
VERTEX
  8
0
 10
2.23226
 20
5.30024
 30
0.0
 40
0
 41
0
  0
VERTEX
  8
0
 10
2.13146
 20
5.32639
 30
0.0
 40
0
 41
0
  0
VERTEX
  8
0
 10
2.08946
 20
5.33843
 30
0.0
 40
0
 41
0
  0
VERTEX
  8
0
 10
2.05599
 20
5.34722
 30
0.0
 40
0
 41
0
  0
VERTEX
  8
0
 10
1.98617
 20
5.36783
 30
0.0
 40
0
 41
0
  0
VERTEX
  8
0
 10
1.88281
 20
5.40235
 30
0.0
 40
0
 41
0
  0
VERTEX
  8
0
 10
1.77599
 20
5.44032
 30
0.0
 40
0
 41
0
  0
VERTEX
  8
0
 10
1.69596
 20
5.47136
 30
0.0
 40
0
 41
0
  0
VERTEX
  8
0
 10
1.63439
 20
5.49886
 30
0.0
 40
0
 41
0
  0
VERTEX
  8
0
 10
1.58018
 20
5.52621
 30
0.0
 40
0
 41
0
  0
VERTEX
  8
0
 10
1.52544
 20
5.55761
 30
0.0
 40
0
 41
0
  0
VERTEX
  8
0
 10
1.46246
 20
5.59728
 30
0.0
 40
0
 41
0
  0
VERTEX
  8
0
 10
1.4274
 20
5.61865
 30
0.0
 40
0
 41
0
  0
VERTEX
  8
0
 10
1.38081
 20
5.64507
 30
0.0
 40
0
 41
0
  0
VERTEX
  8
0
 10
1.32861
 20
5.67324
 30
0.0
 40
0
 41
0
  0
VERTEX
  8
0
 10
1.27707
 20
5.69971
 30
0.0
 40
0
 41
0
  0
VERTEX
  8
0
 10
1.21983
 20
5.72922
 30
0.0
 40
0
 41
0
  0
VERTEX
  8
0
 10
1.1524
 20
5.76546
 30
0.0
 40
0
 41
0
  0
VERTEX
  8
0
 10
1.08317
 20
5.80382
 30
0.0
 40
0
 41
0
  0
VERTEX
  8
0
 10
1.02051
 20
5.83974
 30
0.0
 40
0
 41
0
  0
VERTEX
  8
0
 10
0.959907
 20
5.87494
 30
0.0
 40
0
 41
0
  0
VERTEX
  8
0
 10
0.896431
 20
5.91124
 30
0.0
 40
0
 41
0
  0
VERTEX
  8
0
 10
0.837511
 20
5.94444
 30
0.0
 40
0
 41
0
  0
VERTEX
  8
0
 10
0.790799
 20
5.97017
 30
0.0
 40
0
 41
0
  0
VERTEX
  8
0
 10
0.700629
 20
6.02175
 30
0.0
 40
0
 41
0
  0
VERTEX
  8
0
 10
0.613986
 20
6.07639
 30
0.0
 40
0
 41
0
  0
VERTEX
  8
0
 10
0.541396
 20
6.12717
 30
0.0
 40
0
 41
0
  0
VERTEX
  8
0
 10
0.493381
 20
6.16699
 30
0.0
 40
0
 41
0
  0
VERTEX
  8
0
 10
0.463596
 20
6.19954
 30
0.0
 40
0
 41
0
  0
VERTEX
  8
0
 10
0.438911
 20
6.23107
 30
0.0
 40
0
 41
0
  0
VERTEX
  8
0
 10
0.420518
 20
6.25543
 30
0.0
 40
0
 41
0
  0
VERTEX
  8
0
 10
0.405925
 20
6.27051
 30
0.0
 40
0
 41
0
  0
VERTEX
  8
0
 10
0.397678
 20
6.27914
 30
0.0
 40
0
 41
0
  0
VERTEX
  8
0
 10
0.383951
 20
6.29617
 30
0.0
 40
0
 41
0
  0
VERTEX
  8
0
 10
0.366753
 20
6.31922
 30
0.0
 40
0
 41
0
  0
VERTEX
  8
0
 10
0.347928
 20
6.34576
 30
0.0
 40
0
 41
0
  0
VERTEX
  8
0
 10
0.326443
 20
6.37804
 30
0.0
 40
0
 41
0
  0
VERTEX
  8
0
 10
0.311632
 20
6.40349
 30
0.0
 40
0
 41
0
  0
VERTEX
  8
0
 10
0.302681
 20
6.42361
 30
0.0
 40
0
 41
0
  0
VERTEX
  8
0
 10
0.298828
 20
6.44
 30
0.0
 40
0
 41
0
  0
VERTEX
  8
0
 10
0.296169
 20
6.46354
 30
0.0
 40
0
 41
0
  0
VERTEX
  8
0
 10
0.294108
 20
6.48133
 30
0.0
 40
0
 41
0
  0
VERTEX
  8
0
 10
0.295356
 20
6.50456
 30
0.0
 40
0
 41
0
  0
VERTEX
  8
0
 10
0.303114
 20
6.53299
 30
0.0
 40
0
 41
0
  0
VERTEX
  8
0
 10
0.31581
 20
6.56256
 30
0.0
 40
0
 41
0
  0
VERTEX
  8
0
 10
0.332031
 20
6.58908
 30
0.0
 40
0
 41
0
  0
VERTEX
  8
0
 10
0.356336
 20
6.62392
 30
0.0
 40
0
 41
0
  0
VERTEX
  8
0
 10
0.382107
 20
6.66347
 30
0.0
 40
0
 41
0
  0
VERTEX
  8
0
 10
0.397732
 20
6.6856
 30
0.0
 40
0
 41
0
  0
VERTEX
  8
0
 10
0.420518
 20
6.71408
 30
0.0
 40
0
 41
0
  0
VERTEX
  8
0
 10
0.447319
 20
6.74533
 30
0.0
 40
0
 41
0
  0
VERTEX
  8
0
 10
0.475206
 20
6.77556
 30
0.0
 40
0
 41
0
  0
VERTEX
  8
0
 10
0.506131
 20
6.80875
 30
0.0
 40
0
 41
0
  0
VERTEX
  8
0
 10
0.541287
 20
6.84788
 30
0.0
 40
0
 41
0
  0
VERTEX
  8
0
 10
0.576443
 20
6.88803
 30
0.0
 40
0
 41
0
  0
VERTEX
  8
0
 10
0.60726
 20
6.92437
 30
0.0
 40
0
 41
0
  0
VERTEX
  8
0
 10
0.686415
 20
7.00863
 30
0.0
 40
0
 41
0
  0
VERTEX
  8
0
 10
0.786187
 20
7.0969
 30
0.0
 40
0
 41
0
  0
VERTEX
  8
0
 10
0.898926
 20
7.183
 30
0.0
 40
0
 41
0
  0
VERTEX
  8
0
 10
1.01709
 20
7.26058
 30
0.0
 40
0
 41
0
  0
VERTEX
  8
0
 10
1.0536
 20
7.28315
 30
0.0
 40
0
 41
0
  0
VERTEX
  8
0
 10
1.09489
 20
7.30935
 30
0.0
 40
0
 41
0
  0
VERTEX
  8
0
 10
1.13585
 20
7.33599
 30
0.0
 40
0
 41
0
  0
VERTEX
  8
0
 10
1.17139
 20
7.35969
 30
0.0
 40
0
 41
0
  0
VERTEX
  8
0
 10
1.24067
 20
7.40315
 30
0.0
 40
0
 41
0
  0
VERTEX
  8
0
 10
1.31814
 20
7.44542
 30
0.0
 40
0
 41
0
  0
VERTEX
  8
0
 10
1.39426
 20
7.48161
 30
0.0
 40
0
 41
0
  0
VERTEX
  8
0
 10
1.45936
 20
7.50678
 30
0.0
 40
0
 41
0
  0
VERTEX
  8
0
 10
1.48421
 20
7.51525
 30
0.0
 40
0
 41
0
  0
VERTEX
  8
0
 10
1.51644
 20
7.52675
 30
0.0
 40
0
 41
0
  0
VERTEX
  8
0
 10
1.55181
 20
7.53987
 30
0.0
 40
0
 41
0
  0
VERTEX
  8
0
 10
1.58626
 20
7.553
 30
0.0
 40
0
 41
0
  0
VERTEX
  8
0
 10
1.67529
 20
7.58496
 30
0.0
 40
0
 41
0
  0
VERTEX
  8
0
 10
1.74539
 20
7.60211
 30
0.0
 40
0
 41
0
  0
VERTEX
  8
0
 10
1.80593
 20
7.60612
 30
0.0
 40
0
 41
0
  0
VERTEX
  8
0
 10
1.86649
 20
7.59842
 30
0.0
 40
0
 41
0
  0
VERTEX
  8
0
 10
1.87875
 20
7.59369
 30
0.0
 40
0
 41
0
  0
VERTEX
  8
0
 10
1.87067
 20
7.58182
 30
0.0
 40
0
 41
0
  0
VERTEX
  8
0
 10
1.84472
 20
7.56342
 30
0.0
 40
0
 41
0
  0
VERTEX
  8
0
 10
1.79753
 20
7.53896
 30
0.0
 40
0
 41
0
  0
VERTEX
  8
0
 10
1.73639
 20
7.51187
 30
0.0
 40
0
 41
0
  0
VERTEX
  8
0
 10
1.66857
 20
7.48568
 30
0.0
 40
0
 41
0
  0
VERTEX
  8
0
 10
1.63547
 20
7.47325
 30
0.0
 40
0
 41
0
  0
VERTEX
  8
0
 10
1.60368
 20
7.46024
 30
0.0
 40
0
 41
0
  0
VERTEX
  8
0
 10
1.57682
 20
7.44819
 30
0.0
 40
0
 41
0
  0
VERTEX
  8
0
 10
1.55854
 20
7.43858
 30
0.0
 40
0
 41
0
  0
VERTEX
  8
0
 10
1.51747
 20
7.41868
 30
0.0
 40
0
 41
0
  0
VERTEX
  8
0
 10
1.46251
 20
7.39729
 30
0.0
 40
0
 41
0
  0
VERTEX
  8
0
 10
1.39208
 20
7.37039
 30
0.0
 40
0
 41
0
  0
VERTEX
  8
0
 10
1.32981
 20
7.34164
 30
0.0
 40
0
 41
0
  0
VERTEX
  8
0
 10
1.28
 20
7.31326
 30
0.0
 40
0
 41
0
  0
VERTEX
  8
0
 10
1.2468
 20
7.28737
 30
0.0
 40
0
 41
0
  0
VERTEX
  8
0
 10
1.22141
 20
7.26486
 30
0.0
 40
0
 41
0
  0
VERTEX
  8
0
 10
1.18321
 20
7.23639
 30
0.0
 40
0
 41
0
  0
VERTEX
  8
0
 10
1.12988
 20
7.20031
 30
0.0
 40
0
 41
0
  0
VERTEX
  8
0
 10
1.05892
 20
7.15479
 30
0.0
 40
0
 41
0
  0
VERTEX
  8
0
 10
1.01497
 20
7.12244
 30
0.0
 40
0
 41
0
  0
VERTEX
  8
0
 10
0.985568
 20
7.08914
 30
0.0
 40
0
 41
0
  0
VERTEX
  8
0
 10
0.962674
 20
7.06114
 30
0.0
 40
0
 41
0
  0
VERTEX
  8
0
 10
0.939507
 20
7.04107
 30
0.0
 40
0
 41
0
  0
VERTEX
  8
0
 10
0.92665
 20
7.03153
 30
0.0
 40
0
 41
0
  0
VERTEX
  8
0
 10
0.909017
 20
7.01622
 30
0.0
 40
0
 41
0
  0
VERTEX
  8
0
 10
0.888997
 20
6.99729
 30
0.0
 40
0
 41
0
  0
VERTEX
  8
0
 10
0.868815
 20
6.97683
 30
0.0
 40
0
 41
0
  0
VERTEX
  8
0
 10
0.848199
 20
6.95568
 30
0.0
 40
0
 41
0
  0
VERTEX
  8
0
 10
0.82704
 20
6.93468
 30
0.0
 40
0
 41
0
  0
VERTEX
  8
0
 10
0.807889
 20
6.91635
 30
0.0
 40
0
 41
0
  0
VERTEX
  8
0
 10
0.79324
 20
6.9031
 30
0.0
 40
0
 41
0
  0
VERTEX
  8
0
 10
0.766872
 20
6.87571
 30
0.0
 40
0
 41
0
  0
VERTEX
  8
0
 10
0.743272
 20
6.84347
 30
0.0
 40
0
 41
0
  0
VERTEX
  8
0
 10
0.72054
 20
6.81392
 30
0.0
 40
0
 41
0
  0
VERTEX
  8
0
 10
0.696126
 20
6.79551
 30
0.0
 40
0
 41
0
  0
VERTEX
  8
0
 10
0.675293
 20
6.78082
 30
0.0
 40
0
 41
0
  0
VERTEX
  8
0
 10
0.661512
 20
6.76253
 30
0.0
 40
0
 41
0
  0
VERTEX
  8
0
 10
0.648113
 20
6.7366
 30
0.0
 40
0
 41
0
  0
VERTEX
  8
0
 10
0.628961
 20
6.70318
 30
0.0
 40
0
 41
0
  0
VERTEX
  8
0
 10
0.612468
 20
6.67165
 30
0.0
 40
0
 41
0
  0
VERTEX
  8
0
 10
0.605632
 20
6.65022
 30
0.0
 40
0
 41
0
  0
VERTEX
  8
0
 10
0.601779
 20
6.6339
 30
0.0
 40
0
 41
0
  0
VERTEX
  8
0
 10
0.592557
 20
6.61447
 30
0.0
 40
0
 41
0
  0
VERTEX
  8
0
 10
0.584853
 20
6.57758
 30
0.0
 40
0
 41
0
  0
VERTEX
  8
0
 10
0.605251
 20
6.5434
 30
0.0
 40
0
 41
0
  0
VERTEX
  8
0
 10
0.613336
 20
6.53776
 30
0.0
 40
0
 41
0
  0
VERTEX
  8
0
 10
0.623481
 20
6.53543
 30
0.0
 40
0
 41
0
  0
VERTEX
  8
0
 10
0.639214
 20
6.53629
 30
0.0
 40
0
 41
0
  0
VERTEX
  8
0
 10
0.664008
 20
6.54015
 30
0.0
 40
0
 41
0
  0
VERTEX
  8
0
 10
0.709799
 20
6.54525
 30
0.0
 40
0
 41
0
  0
VERTEX
  8
0
 10
0.756728
 20
6.54372
 30
0.0
 40
0
 41
0
  0
VERTEX
  8
0
 10
0.809517
 20
6.53521
 30
0.0
 40
0
 41
0
  0
VERTEX
  8
0
 10
0.873047
 20
6.5191
 30
0.0
 40
0
 41
0
  0
VERTEX
  8
0
 10
0.917156
 20
6.50722
 30
0.0
 40
0
 41
0
  0
VERTEX
  8
0
 10
0.948785
 20
6.50103
 30
0.0
 40
0
 41
0
  0
VERTEX
  8
0
 10
0.97716
 20
6.49935
 30
0.0
 40
0
 41
0
  0
VERTEX
  8
0
 10
1.0115
 20
6.50092
 30
0.0
 40
0
 41
0
  0
VERTEX
  8
0
 10
1.07227
 20
6.5095
 30
0.0
 40
0
 41
0
  0
VERTEX
  8
0
 10
1.13498
 20
6.5255
 30
0.0
 40
0
 41
0
  0
VERTEX
  8
0
 10
1.23638
 20
6.5465
 30
0.0
 40
0
 41
0
  0
VERTEX
  8
0
 10
1.35997
 20
6.54389
 30
0.0
 40
0
 41
0
  0
VERTEX
  8
0
 10
1.39572
 20
6.5415
 30
0.0
 40
0
 41
0
  0
VERTEX
  8
0
 10
1.42344
 20
6.54183
 30
0.0
 40
0
 41
0
  0
VERTEX
  8
0
 10
1.44971
 20
6.54542
 30
0.0
 40
0
 41
0
  0
VERTEX
  8
0
 10
1.48112
 20
6.55268
 30
0.0
 40
0
 41
0
  0
VERTEX
  8
0
 10
1.54124
 20
6.56375
 30
0.0
 40
0
 41
0
  0
VERTEX
  8
0
 10
1.61083
 20
6.56706
 30
0.0
 40
0
 41
0
  0
VERTEX
  8
0
 10
1.67611
 20
6.56933
 30
0.0
 40
0
 41
0
  0
VERTEX
  8
0
 10
1.72971
 20
6.57476
 30
0.0
 40
0
 41
0
  0
VERTEX
  8
0
 10
1.75543
 20
6.58008
 30
0.0
 40
0
 41
0
  0
VERTEX
  8
0
 10
1.77447
 20
6.58762
 30
0.0
 40
0
 41
0
  0
VERTEX
  8
0
 10
1.79308
 20
6.60086
 30
0.0
 40
0
 41
0
  0
VERTEX
  8
0
 10
1.8176
 20
6.62326
 30
0.0
 40
0
 41
0
  0
VERTEX
  8
0
 10
1.83469
 20
6.63878
 30
0.0
 40
0
 41
0
  0
VERTEX
  8
0
 10
1.84983
 20
6.65082
 30
0.0
 40
0
 41
0
  0
VERTEX
  8
0
 10
1.86122
 20
6.65821
 30
0.0
 40
0
 41
0
  0
VERTEX
  8
0
 10
1.86729
 20
6.65972
 30
0.0
 40
0
 41
0
  0
VERTEX
  8
0
 10
1.87429
 20
6.66254
 30
0.0
 40
0
 41
0
  0
VERTEX
  8
0
 10
1.88574
 20
6.67606
 30
0.0
 40
0
 41
0
  0
VERTEX
  8
0
 10
1.91504
 20
6.69006
 30
0.0
 40
0
 41
0
  0
VERTEX
  8
0
 10
1.95432
 20
6.70171
 30
0.0
 40
0
 41
0
  0
VERTEX
  8
0
 10
1.99593
 20
6.70811
 30
0.0
 40
0
 41
0
  0
VERTEX
  8
0
 10
2.0395
 20
6.71246
 30
0.0
 40
0
 41
0
  0
VERTEX
  8
0
 10
2.07775
 20
6.7194
 30
0.0
 40
0
 41
0
  0
VERTEX
  8
0
 10
2.11626
 20
6.73031
 30
0.0
 40
0
 41
0
  0
VERTEX
  8
0
 10
2.16075
 20
6.74647
 30
0.0
 40
0
 41
0
  0
VERTEX
  8
0
 10
2.20144
 20
6.76019
 30
0.0
 40
0
 41
0
  0
VERTEX
  8
0
 10
2.22933
 20
6.76574
 30
0.0
 40
0
 41
0
  0
VERTEX
  8
0
 10
2.24365
 20
6.76417
 30
0.0
 40
0
 41
0
  0
VERTEX
  8
0
 10
2.23432
 20
6.75493
 30
0.0
 40
0
 41
0
  0
VERTEX
  8
0
 10
2.20703
 20
6.73649
 30
0.0
 40
0
 41
0
  0
VERTEX
  8
0
 10
2.1735
 20
6.71724
 30
0.0
 40
0
 41
0
  0
VERTEX
  8
0
 10
2.13921
 20
6.70025
 30
0.0
 40
0
 41
0
  0
VERTEX
  8
0
 10
2.10975
 20
6.68842
 30
0.0
 40
0
 41
0
  0
VERTEX
  8
0
 10
2.07096
 20
6.67383
 30
0.0
 40
0
 41
0
  0
VERTEX
  8
0
 10
2.02746
 20
6.65474
 30
0.0
 40
0
 41
0
  0
VERTEX
  8
0
 10
1.98058
 20
6.6326
 30
0.0
 40
0
 41
0
  0
VERTEX
  8
0
 10
2.08344
 20
6.62375
 30
0.0
 40
0
 41
0
  0
VERTEX
  8
0
 10
2.17372
 20
6.61464
 30
0.0
 40
0
 41
0
  0
VERTEX
  8
0
 10
2.23785
 20
6.60428
 30
0.0
 40
0
 41
0
  0
VERTEX
  8
0
 10
2.28228
 20
6.59142
 30
0.0
 40
0
 41
0
  0
VERTEX
  8
0
 10
2.31342
 20
6.57454
 30
0.0
 40
0
 41
0
  0
VERTEX
  8
0
 10
2.34006
 20
6.55881
 30
0.0
 40
0
 41
0
  0
VERTEX
  8
0
 10
2.36372
 20
6.55013
 30
0.0
 40
0
 41
0
  0
VERTEX
  8
0
 10
2.38743
 20
6.5485
 30
0.0
 40
0
 41
0
  0
VERTEX
  8
0
 10
2.50304
 20
6.54492
 30
0.0
 40
0
 41
0
  0
VERTEX
  8
0
 10
2.58062
 20
6.54335
 30
0.0
 40
0
 41
0
  0
VERTEX
  8
0
 10
2.77604
 20
6.54015
 30
0.0
 40
0
 41
0
  0
VERTEX
  8
0
 10
2.86176
 20
6.51503
 30
0.0
 40
0
 41
0
  0
VERTEX
  8
0
 10
2.91401
 20
6.50043
 30
0.0
 40
0
 41
0
  0
VERTEX
  8
0
 10
2.95871
 20
6.4924
 30
0.0
 40
0
 41
0
  0
VERTEX
  8
0
 10
3.02007
 20
6.48807
 30
0.0
 40
0
 41
0
  0
VERTEX
  8
0
 10
3.12235
 20
6.4846
 30
0.0
 40
0
 41
0
  0
VERTEX
  8
0
 10
3.19293
 20
6.48204
 30
0.0
 40
0
 41
0
  0
VERTEX
  8
0
 10
3.25592
 20
6.47885
 30
0.0
 40
0
 41
0
  0
VERTEX
  8
0
 10
3.30442
 20
6.47547
 30
0.0
 40
0
 41
0
  0
VERTEX
  8
0
 10
3.3316
 20
6.47228
 30
0.0
 40
0
 41
0
  0
VERTEX
  8
0
 10
3.35167
 20
6.46701
 30
0.0
 40
0
 41
0
  0
VERTEX
  8
0
 10
3.38103
 20
6.45785
 30
0.0
 40
0
 41
0
  0
VERTEX
  8
0
 10
3.41564
 20
6.44607
 30
0.0
 40
0
 41
0
  0
VERTEX
  8
0
 10
3.45161
 20
6.433
 30
0.0
 40
0
 41
0
  0
VERTEX
  8
0
 10
3.5344
 20
6.4025
 30
0.0
 40
0
 41
0
  0
VERTEX
  8
0
 10
3.58942
 20
6.38628
 30
0.0
 40
0
 41
0
  0
VERTEX
  8
0
 10
3.6415
 20
6.37896
 30
0.0
 40
0
 41
0
  0
VERTEX
  8
0
 10
3.71556
 20
6.375
 30
0.0
 40
0
 41
0
  0
VERTEX
  8
0
 10
3.77957
 20
6.37164
 30
0.0
 40
0
 41
0
  0
VERTEX
  8
0
 10
3.82465
 20
6.36708
 30
0.0
 40
0
 41
0
  0
VERTEX
  8
0
 10
3.86225
 20
6.35969
 30
0.0
 40
0
 41
0
  0
VERTEX
  8
0
 10
3.90414
 20
6.34788
 30
0.0
 40
0
 41
0
  0
VERTEX
  8
0
 10
3.96669
 20
6.32992
 30
0.0
 40
0
 41
0
  0
VERTEX
  8
0
 10
4.01915
 20
6.31928
 30
0.0
 40
0
 41
0
  0
VERTEX
  8
0
 10
4.07992
 20
6.31342
 30
0.0
 40
0
 41
0
  0
VERTEX
  8
0
 10
4.16743
 20
6.30951
 30
0.0
 40
0
 41
0
  0
VERTEX
  8
0
 10
4.27696
 20
6.30279
 30
0.0
 40
0
 41
0
  0
VERTEX
  8
0
 10
4.35672
 20
6.29124
 30
0.0
 40
0
 41
0
  0
VERTEX
  8
0
 10
4.39649
 20
6.28401
 30
0.0
 40
0
 41
0
  0
VERTEX
  8
0
 10
4.49968
 20
6.27854
 30
0.0
 40
0
 41
0
  0
VERTEX
  8
0
 10
4.5899
 20
6.27881
 30
0.0
 40
0
 41
0
  0
VERTEX
  8
0
 10
4.68338
 20
6.28017
 30
0.0
 40
0
 41
0
  0
VERTEX
  8
0
 10
4.74675
 20
6.2831
 30
0.0
 40
0
 41
0
  0
VERTEX
  8
0
 10
4.79807
 20
6.28911
 30
0.0
 40
0
 41
0
  0
VERTEX
  8
0
 10
4.85558
 20
6.29953
 30
0.0
 40
0
 41
0
  0
VERTEX
  8
0
 10
4.95318
 20
6.31879
 30
0.0
 40
0
 41
0
  0
VERTEX
  8
0
 10
5.00592
 20
6.30208
 30
0.0
 40
0
 41
0
  0
VERTEX
  8
0
 10
5.05524
 20
6.28808
 30
0.0
 40
0
 41
0
  0
VERTEX
  8
0
 10
5.09765
 20
6.28125
 30
0.0
 40
0
 41
0
  0
VERTEX
  8
0
 10
5.14432
 20
6.28076
 30
0.0
 40
0
 41
0
  0
VERTEX
  8
0
 10
5.20617
 20
6.28564
 30
0.0
 40
0
 41
0
  0
VERTEX
  8
0
 10
5.25706
 20
6.29025
 30
0.0
 40
0
 41
0
  0
VERTEX
  8
0
 10
5.29221
 20
6.29075
 30
0.0
 40
0
 41
0
  0
VERTEX
  8
0
 10
5.32656
 20
6.28614
 30
0.0
 40
0
 41
0
  0
VERTEX
  8
0
 10
5.37511
 20
6.27561
 30
0.0
 40
0
 41
0
  0
VERTEX
  8
0
 10
5.42426
 20
6.26519
 30
0.0
 40
0
 41
0
  0
VERTEX
  8
0
 10
5.46436
 20
6.26014
 30
0.0
 40
0
 41
0
  0
VERTEX
  8
0
 10
5.51383
 20
6.25944
 30
0.0
 40
0
 41
0
  0
VERTEX
  8
0
 10
5.5911
 20
6.26172
 30
0.0
 40
0
 41
0
  0
VERTEX
  8
0
 10
5.66058
 20
6.26367
 30
0.0
 40
0
 41
0
  0
VERTEX
  8
0
 10
5.75125
 20
6.26074
 30
0.0
 40
0
 41
0
  0
VERTEX
  8
0
 10
5.78885
 20
6.25532
 30
0.0
 40
0
 41
0
  0
VERTEX
  8
0
 10
5.90235
 20
6.24826
 30
0.0
 40
0
 41
0
  0
VERTEX
  8
0
 10
6.03342
 20
6.26639
 30
0.0
 40
0
 41
0
  0
VERTEX
  8
0
 10
6.0989
 20
6.27974
 30
0.0
 40
0
 41
0
  0
VERTEX
  8
0
 10
6.14925
 20
6.28782
 30
0.0
 40
0
 41
0
  0
VERTEX
  8
0
 10
6.19928
 20
6.29258
 30
0.0
 40
0
 41
0
  0
VERTEX
  8
0
 10
6.26378
 20
6.2959
 30
0.0
 40
0
 41
0
  0
VERTEX
  8
0
 10
6.46203
 20
6.30957
 30
0.0
 40
0
 41
0
  0
VERTEX
  8
0
 10
6.63667
 20
6.33464
 30
0.0
 40
0
 41
0
  0
VERTEX
  8
0
 10
6.72103
 20
6.34858
 30
0.0
 40
0
 41
0
  0
VERTEX
  8
0
 10
6.77957
 20
6.35357
 30
0.0
 40
0
 41
0
  0
VERTEX
  8
0
 10
6.82536
 20
6.34978
 30
0.0
 40
0
 41
0
  0
VERTEX
  8
0
 10
6.87158
 20
6.33729
 30
0.0
 40
0
 41
0
  0
VERTEX
  8
0
 10
6.8756
 20
6.3285
 30
0.0
 40
0
 41
0
  0
VERTEX
  8
0
 10
6.8686
 20
6.30393
 30
0.0
 40
0
 41
0
  0
VERTEX
  8
0
 10
6.85726
 20
6.27333
 30
0.0
 40
0
 41
0
  0
VERTEX
  8
0
 10
6.794
 20
6.25543
 30
0.0
 40
0
 41
0
  0
VERTEX
  8
0
 10
6.68207
 20
6.23236
 30
0.0
 40
0
 41
0
  0
VERTEX
  8
0
 10
6.56489
 20
6.22418
 30
0.0
 40
0
 41
0
  0
VERTEX
  8
0
 10
6.5064
 20
6.22011
 30
0.0
 40
0
 41
0
  0
VERTEX
  8
0
 10
6.43804
 20
6.21039
 30
0.0
 40
0
 41
0
  0
VERTEX
  8
0
 10
6.36356
 20
6.19878
 30
0.0
 40
0
 41
0
  0
VERTEX
  8
0
 10
6.29058
 20
6.19006
 30
0.0
 40
0
 41
0
  0
VERTEX
  8
0
 10
6.18647
 20
6.18061
 30
0.0
 40
0
 41
0
  0
VERTEX
  8
0
 10
6.10221
 20
6.17339
 30
0.0
 40
0
 41
0
  0
VERTEX
  8
0
 10
6.03153
 20
6.16818
 30
0.0
 40
0
 41
0
  0
VERTEX
  8
0
 10
5.96804
 20
6.16461
 30
0.0
 40
0
 41
0
  0
VERTEX
  8
0
 10
5.75754
 20
6.16135
 30
0.0
 40
0
 41
0
  0
VERTEX
  8
0
 10
5.65967
 20
6.16174
 30
0.0
 40
0
 41
0
  0
VERTEX
  8
0
 10
5.54113
 20
6.16287
 30
0.0
 40
0
 41
0
  0
VERTEX
  8
0
 10
5.44233
 20
6.16482
 30
0.0
 40
0
 41
0
  0
VERTEX
  8
0
 10
5.37164
 20
6.16737
 30
0.0
 40
0
 41
0
  0
VERTEX
  8
0
 10
5.3374
 20
6.17031
 30
0.0
 40
0
 41
0
  0
VERTEX
  8
0
 10
5.29719
 20
6.17513
 30
0.0
 40
0
 41
0
  0
VERTEX
  8
0
 10
5.22965
 20
6.17686
 30
0.0
 40
0
 41
0
  0
VERTEX
  8
0
 10
5.13081
 20
6.17557
 30
0.0
 40
0
 41
0
  0
VERTEX
  8
0
 10
4.99664
 20
6.17122
 30
0.0
 40
0
 41
0
  0
VERTEX
  8
0
 10
4.86632
 20
6.16883
 30
0.0
 40
0
 41
0
  0
VERTEX
  8
0
 10
4.77376
 20
6.17219
 30
0.0
 40
0
 41
0
  0
VERTEX
  8
0
 10
4.73708
 20
6.17486
 30
0.0
 40
0
 41
0
  0
VERTEX
  8
0
 10
4.63732
 20
6.1785
 30
0.0
 40
0
 41
0
  0
VERTEX
  8
0
 10
4.58649
 20
6.17904
 30
0.0
 40
0
 41
0
  0
VERTEX
  8
0
 10
4.51882
 20
6.17871
 30
0.0
 40
0
 41
0
  0
VERTEX
  8
0
 10
4.47738
 20
6.17626
 30
0.0
 40
0
 41
0
  0
VERTEX
  8
0
 10
4.4464
 20
6.16965
 30
0.0
 40
0
 41
0
  0
VERTEX
  8
0
 10
4.41026
 20
6.15701
 30
0.0
 40
0
 41
0
  0
VERTEX
  8
0
 10
4.35254
 20
6.13846
 30
0.0
 40
0
 41
0
  0
VERTEX
  8
0
 10
4.30425
 20
6.13108
 30
0.0
 40
0
 41
0
  0
VERTEX
  8
0
 10
4.25532
 20
6.1345
 30
0.0
 40
0
 41
0
  0
VERTEX
  8
0
 10
4.19569
 20
6.14828
 30
0.0
 40
0
 41
0
  0
VERTEX
  8
0
 10
4.1575
 20
6.15972
 30
0.0
 40
0
 41
0
  0
VERTEX
  8
0
 10
4.1269
 20
6.17122
 30
0.0
 40
0
 41
0
  0
VERTEX
  8
0
 10
4.10069
 20
6.18408
 30
0.0
 40
0
 41
0
  0
VERTEX
  8
0
 10
4.07563
 20
6.19965
 30
0.0
 40
0
 41
0
  0
VERTEX
  8
0
 10
4.03597
 20
6.22314
 30
0.0
 40
0
 41
0
  0
VERTEX
  8
0
 10
4.00353
 20
6.23671
 30
0.0
 40
0
 41
0
  0
VERTEX
  8
0
 10
3.96604
 20
6.24664
 30
0.0
 40
0
 41
0
  0
VERTEX
  8
0
 10
3.91444
 20
6.26139
 30
0.0
 40
0
 41
0
  0
VERTEX
  8
0
 10
3.84549
 20
6.27681
 30
0.0
 40
0
 41
0
  0
VERTEX
  8
0
 10
3.76014
 20
6.28569
 30
0.0
 40
0
 41
0
  0
VERTEX
  8
0
 10
3.65944
 20
6.29546
 30
0.0
 40
0
 41
0
  0
VERTEX
  8
0
 10
3.56874
 20
6.3131
 30
0.0
 40
0
 41
0
  0
VERTEX
  8
0
 10
3.46838
 20
6.34358
 30
0.0
 40
0
 41
0
  0
VERTEX
  8
0
 10
3.33892
 20
6.39182
 30
0.0
 40
0
 41
0
  0
VERTEX
  8
0
 10
3.25711
 20
6.42378
 30
0.0
 40
0
 41
0
  0
VERTEX
  8
0
 10
3.14344
 20
6.42247
 30
0.0
 40
0
 41
0
  0
VERTEX
  8
0
 10
3.06179
 20
6.42258
 30
0.0
 40
0
 41
0
  0
VERTEX
  8
0
 10
3.00022
 20
6.42572
 30
0.0
 40
0
 41
0
  0
VERTEX
  8
0
 10
2.94754
 20
6.43289
 30
0.0
 40
0
 41
0
  0
VERTEX
  8
0
 10
2.89264
 20
6.4451
 30
0.0
 40
0
 41
0
  0
VERTEX
  8
0
 10
2.7889
 20
6.45893
 30
0.0
 40
0
 41
0
  0
VERTEX
  8
0
 10
2.63807
 20
6.45437
 30
0.0
 40
0
 41
0
  0
VERTEX
  8
0
 10
2.59326
 20
6.45176
 30
0.0
 40
0
 41
0
  0
VERTEX
  8
0
 10
2.56147
 20
6.45176
 30
0.0
 40
0
 41
0
  0
VERTEX
  8
0
 10
2.53558
 20
6.45475
 30
0.0
 40
0
 41
0
  0
VERTEX
  8
0
 10
2.50863
 20
6.46104
 30
0.0
 40
0
 41
0
  0
VERTEX
  8
0
 10
2.48182
 20
6.4675
 30
0.0
 40
0
 41
0
  0
VERTEX
  8
0
 10
2.45893
 20
6.47017
 30
0.0
 40
0
 41
0
  0
VERTEX
  8
0
 10
2.43251
 20
6.46935
 30
0.0
 40
0
 41
0
  0
VERTEX
  8
0
 10
2.39535
 20
6.46522
 30
0.0
 40
0
 41
0
  0
VERTEX
  8
0
 10
2.35786
 20
6.46099
 30
0.0
 40
0
 41
0
  0
VERTEX
  8
0
 10
2.33393
 20
6.46018
 30
0.0
 40
0
 41
0
  0
VERTEX
  8
0
 10
2.31651
 20
6.46317
 30
0.0
 40
0
 41
0
  0
VERTEX
  8
0
 10
2.29844
 20
6.47021
 30
0.0
 40
0
 41
0
  0
VERTEX
  8
0
 10
2.26226
 20
6.48367
 30
0.0
 40
0
 41
0
  0
VERTEX
  8
0
 10
2.21169
 20
6.49935
 30
0.0
 40
0
 41
0
  0
VERTEX
  8
0
 10
2.15978
 20
6.51351
 30
0.0
 40
0
 41
0
  0
VERTEX
  8
0
 10
2.11936
 20
6.52235
 30
0.0
 40
0
 41
0
  0
VERTEX
  8
0
 10
2.07553
 20
6.52061
 30
0.0
 40
0
 41
0
  0
VERTEX
  8
0
 10
1.99935
 20
6.50819
 30
0.0
 40
0
 41
0
  0
VERTEX
  8
0
 10
1.94504
 20
6.49815
 30
0.0
 40
0
 41
0
  0
VERTEX
  8
0
 10
1.90815
 20
6.49371
 30
0.0
 40
0
 41
0
  0
VERTEX
  8
0
 10
1.87511
 20
6.49403
 30
0.0
 40
0
 41
0
  0
VERTEX
  8
0
 10
1.83236
 20
6.49837
 30
0.0
 40
0
 41
0
  0
VERTEX
  8
0
 10
1.71224
 20
6.50244
 30
0.0
 40
0
 41
0
  0
VERTEX
  8
0
 10
1.59999
 20
6.48649
 30
0.0
 40
0
 41
0
  0
VERTEX
  8
0
 10
1.57042
 20
6.48122
 30
0.0
 40
0
 41
0
  0
VERTEX
  8
0
 10
1.52892
 20
6.47775
 30
0.0
 40
0
 41
0
  0
VERTEX
  8
0
 10
1.46978
 20
6.47564
 30
0.0
 40
0
 41
0
  0
VERTEX
  8
0
 10
1.38737
 20
6.47467
 30
0.0
 40
0
 41
0
  0
VERTEX
  8
0
 10
1.28944
 20
6.47379
 30
0.0
 40
0
 41
0
  0
VERTEX
  8
0
 10
1.22955
 20
6.47103
 30
0.0
 40
0
 41
0
  0
VERTEX
  8
0
 10
1.18435
 20
6.46419
 30
0.0
 40
0
 41
0
  0
VERTEX
  8
0
 10
1.13053
 20
6.45111
 30
0.0
 40
0
 41
0
  0
VERTEX
  8
0
 10
1.06652
 20
6.43614
 30
0.0
 40
0
 41
0
  0
VERTEX
  8
0
 10
1.0179
 20
6.42964
 30
0.0
 40
0
 41
0
  0
VERTEX
  8
0
 10
0.970649
 20
6.43083
 30
0.0
 40
0
 41
0
  0
VERTEX
  8
0
 10
0.910807
 20
6.43892
 30
0.0
 40
0
 41
0
  0
VERTEX
  8
0
 10
0.801975
 20
6.456
 30
0.0
 40
0
 41
0
  0
VERTEX
  8
0
 10
0.733615
 20
6.46588
 30
0.0
 40
0
 41
0
  0
VERTEX
  8
0
 10
0.690375
 20
6.47049
 30
0.0
 40
0
 41
0
  0
VERTEX
  8
0
 10
0.65701
 20
6.47179
 30
0.0
 40
0
 41
0
  0
VERTEX
  8
0
 10
0.619303
 20
6.47092
 30
0.0
 40
0
 41
0
  0
VERTEX
  8
0
 10
0.587565
 20
6.46793
 30
0.0
 40
0
 41
0
  0
VERTEX
  8
0
 10
0.566351
 20
6.46349
 30
0.0
 40
0
 41
0
  0
VERTEX
  8
0
 10
0.560547
 20
6.45817
 30
0.0
 40
0
 41
0
  0
VERTEX
  8
0
 10
0.554471
 20
6.45481
 30
0.0
 40
0
 41
0
  0
VERTEX
  8
0
 10
0.536025
 20
6.45296
 30
0.0
 40
0
 41
0
  0
VERTEX
  8
0
 10
0.50944
 20
6.45682
 30
0.0
 40
0
 41
0
  0
VERTEX
  8
0
 10
0.485189
 20
6.47444
 30
0.0
 40
0
 41
0
  0
VERTEX
  8
0
 10
0.467665
 20
6.49567
 30
0.0
 40
0
 41
0
  0
VERTEX
  8
0
 10
0.461589
 20
6.51475
 30
0.0
 40
0
 41
0
  0
VERTEX
  8
0
 10
0.46034
 20
6.5275
 30
0.0
 40
0
 41
0
  0
VERTEX
  8
0
 10
0.457519
 20
6.53276
 30
0.0
 40
0
 41
0
  0
VERTEX
  8
0
 10
0.444336
 20
6.52713
 30
0.0
 40
0
 41
0
  0
VERTEX
  8
0
 10
0.426921
 20
6.51237
 30
0.0
 40
0
 41
0
  0
VERTEX
  8
0
 10
0.4088
 20
6.49214
 30
0.0
 40
0
 41
0
  0
VERTEX
  8
0
 10
0.393554
 20
6.46978
 30
0.0
 40
0
 41
0
  0
VERTEX
  8
0
 10
0.38341
 20
6.4509
 30
0.0
 40
0
 41
0
  0
VERTEX
  8
0
 10
0.378418
 20
6.43707
 30
0.0
 40
0
 41
0
  0
VERTEX
  8
0
 10
0.377767
 20
6.42475
 30
0.0
 40
0
 41
0
  0
VERTEX
  8
0
 10
0.380751
 20
6.41038
 30
0.0
 40
0
 41
0
  0
VERTEX
  8
0
 10
0.390028
 20
6.38846
 30
0.0
 40
0
 41
0
  0
VERTEX
  8
0
 10
0.407661
 20
6.36149
 30
0.0
 40
0
 41
0
  0
VERTEX
  8
0
 10
0.434136
 20
6.32872
 30
0.0
 40
0
 41
0
  0
VERTEX
  8
0
 10
0.470107
 20
6.28933
 30
0.0
 40
0
 41
0
  0
VERTEX
  8
0
 10
0.493164
 20
6.26372
 30
0.0
 40
0
 41
0
  0
VERTEX
  8
0
 10
0.502767
 20
6.25022
 30
0.0
 40
0
 41
0
  0
VERTEX
  8
0
 10
0.506401
 20
6.24544
 30
0.0
 40
0
 41
0
  0
VERTEX
  8
0
 10
0.516331
 20
6.23583
 30
0.0
 40
0
 41
0
  0
VERTEX
  8
0
 10
0.531033
 20
6.22293
 30
0.0
 40
0
 41
0
  0
VERTEX
  8
0
 10
0.549044
 20
6.20806
 30
0.0
 40
0
 41
0
  0
VERTEX
  8
0
 10
0.607747
 20
6.16629
 30
0.0
 40
0
 41
0
  0
VERTEX
  8
0
 10
0.683594
 20
6.1199
 30
0.0
 40
0
 41
0
  0
VERTEX
  8
0
 10
0.764594
 20
6.07585
 30
0.0
 40
0
 41
0
  0
VERTEX
  8
0
 10
0.838758
 20
6.04101
 30
0.0
 40
0
 41
0
  0
VERTEX
  8
0
 10
0.870335
 20
6.02696
 30
0.0
 40
0
 41
0
  0
VERTEX
  8
0
 10
0.903049
 20
6.01079
 30
0.0
 40
0
 41
0
  0
VERTEX
  8
0
 10
0.933106
 20
5.99457
 30
0.0
 40
0
 41
0
  0
VERTEX
  8
0
 10
0.956651
 20
5.98025
 30
0.0
 40
0
 41
0
  0
VERTEX
  8
0
 10
0.980524
 20
5.96565
 30
0.0
 40
0
 41
0
  0
VERTEX
  8
0
 10
1.01166
 20
5.94851
 30
0.0
 40
0
 41
0
  0
VERTEX
  8
0
 10
1.04601
 20
5.93104
 30
0.0
 40
0
 41
0
  0
VERTEX
  8
0
 10
1.07959
 20
5.91525
 30
0.0
 40
0
 41
0
  0
VERTEX
  8
0
 10
1.13314
 20
5.88894
 30
0.0
 40
0
 41
0
  0
VERTEX
  8
0
 10
1.18544
 20
5.85781
 30
0.0
 40
0
 41
0
  0
VERTEX
  8
0
 10
1.23985
 20
5.81961
 30
0.0
 40
0
 41
0
  0
VERTEX
  8
0
 10
1.30008
 20
5.77203
 30
0.0
 40
0
 41
0
  0
VERTEX
  8
0
 10
1.37153
 20
5.72293
 30
0.0
 40
0
 41
0
  0
VERTEX
  8
0
 10
1.47336
 20
5.66857
 30
0.0
 40
0
 41
0
  0
VERTEX
  8
0
 10
1.60525
 20
5.6091
 30
0.0
 40
0
 41
0
  0
VERTEX
  8
0
 10
1.76699
 20
5.54465
 30
0.0
 40
0
 41
0
  0
VERTEX
  8
0
 10
1.81674
 20
5.52544
 30
0.0
 40
0
 41
0
  0
VERTEX
  8
0
 10
1.87181
 20
5.50358
 30
0.0
 40
0
 41
0
  0
VERTEX
  8
0
 10
1.92551
 20
5.48178
 30
0.0
 40
0
 41
0
  0
VERTEX
  8
0
 10
1.97114
 20
5.46262
 30
0.0
 40
0
 41
0
  0
VERTEX
  8
0
 10
2.09418
 20
5.41471
 30
0.0
 40
0
 41
0
  0
VERTEX
  8
0
 10
2.21789
 20
5.3769
 30
0.0
 40
0
 41
0
  0
VERTEX
  8
0
 10
2.35086
 20
5.3469
 30
0.0
 40
0
 41
0
  0
VERTEX
  8
0
 10
2.50163
 20
5.32243
 30
0.0
 40
0
 41
0
  0
VERTEX
  8
0
 10
2.55931
 20
5.31386
 30
0.0
 40
0
 41
0
  0
VERTEX
  8
0
 10
2.62017
 20
5.30382
 30
0.0
 40
0
 41
0
  0
VERTEX
  8
0
 10
2.67703
 20
5.29351
 30
0.0
 40
0
 41
0
  0
VERTEX
  8
0
 10
2.72254
 20
5.28418
 30
0.0
 40
0
 41
0
  0
VERTEX
  8
0
 10
2.78808
 20
5.27029
 30
0.0
 40
0
 41
0
  0
VERTEX
  8
0
 10
2.85151
 20
5.25956
 30
0.0
 40
0
 41
0
  0
VERTEX
  8
0
 10
2.9375
 20
5.24849
 30
0.0
 40
0
 41
0
  0
VERTEX
  8
0
 10
3.0709
 20
5.2334
 30
0.0
 40
0
 41
0
  0
VERTEX
  8
0
 10
3.1996
 20
5.21739
 30
0.0
 40
0
 41
0
  0
VERTEX
  8
0
 10
3.29308
 20
5.20161
 30
0.0
 40
0
 41
0
  0
VERTEX
  8
0
 10
3.34999
 20
5.18631
 30
0.0
 40
0
 41
0
  0
VERTEX
  8
0
 10
3.36925
 20
5.17176
 30
0.0
 40
0
 41
0
  0
VERTEX
  8
0
 10
3.36344
 20
5.15608
 30
0.0
 40
0
 41
0
  0
VERTEX
  8
0
 10
3.3495
 20
5.13624
 30
0.0
 40
0
 41
0
  0
VERTEX
  8
0
 10
3.33257
 20
5.11854
 30
0.0
 40
0
 41
0
  0
VERTEX
  8
0
 10
3.31782
 20
5.10921
 30
0.0
 40
0
 41
0
  0
VERTEX
  8
0
 10
3.30246
 20
5.10846
 30
0.0
 40
0
 41
0
  0
VERTEX
  8
0
 10
3.27317
 20
5.11236
 30
0.0
 40
0
 41
0
  0
VERTEX
  8
0
 10
3.2225
 20
5.12224
 30
0.0
 40
0
 41
0
  0
VERTEX
  8
0
 10
3.14296
 20
5.13943
 30
0.0
 40
0
 41
0
  0
VERTEX
  8
0
 10
3.12885
 20
5.14171
 30
0.0
 40
0
 41
0
  0
VERTEX
  8
0
 10
3.11876
 20
5.139
 30
0.0
 40
0
 41
0
  0
VERTEX
  8
0
 10
3.10846
 20
5.12853
 30
0.0
 40
0
 41
0
  0
VERTEX
  8
0
 10
3.09381
 20
5.10753
 30
0.0
 40
0
 41
0
  0
VERTEX
  8
0
 10
3.05533
 20
5.05572
 30
0.0
 40
0
 41
0
  0
VERTEX
  8
0
 10
3.01546
 20
5.01161
 30
0.0
 40
0
 41
0
  0
VERTEX
  8
0
 10
2.97558
 20
4.97661
 30
0.0
 40
0
 41
0
  0
VERTEX
  8
0
 10
2.93718
 20
4.9521
 30
0.0
 40
0
 41
0
  0
VERTEX
  8
0
 10
2.90479
 20
4.93375
 30
0.0
 40
0
 41
0
  0
VERTEX
  8
0
 10
2.88189
 20
4.91347
 30
0.0
 40
0
 41
0
  0
VERTEX
  8
0
 10
2.86253
 20
4.88422
 30
0.0
 40
0
 41
0
  0
VERTEX
  8
0
 10
2.84082
 20
4.83897
 30
0.0
 40
0
 41
0
  0
VERTEX
  8
0
 10
2.81369
 20
4.78618
 30
0.0
 40
0
 41
0
  0
VERTEX
  8
0
 10
2.78108
 20
4.73139
 30
0.0
 40
0
 41
0
  0
VERTEX
  8
0
 10
2.75054
 20
4.68007
 30
0.0
 40
0
 41
0
  0
VERTEX
  8
0
 10
2.72851
 20
4.63542
 30
0.0
 40
0
 41
0
  0
VERTEX
  8
0
 10
2.71386
 20
4.59978
 30
0.0
 40
0
 41
0
  0
VERTEX
  8
0
 10
2.70139
 20
4.57004
 30
0.0
 40
0
 41
0
  0
VERTEX
  8
0
 10
2.69358
 20
4.54628
 30
0.0
 40
0
 41
0
  0
VERTEX
  8
0
 10
2.69032
 20
4.52496
 30
0.0
 40
0
 41
0
  0
VERTEX
  8
0
 10
2.68431
 20
4.49875
 30
0.0
 40
0
 41
0
  0
VERTEX
  8
0
 10
2.66986
 20
4.46317
 30
0.0
 40
0
 41
0
  0
VERTEX
  8
0
 10
2.65017
 20
4.41889
 30
0.0
 40
0
 41
0
  0
VERTEX
  8
0
 10
2.63499
 20
4.37711
 30
0.0
 40
0
 41
0
  0
VERTEX
  8
0
 10
2.62517
 20
4.34076
 30
0.0
 40
0
 41
0
  0
VERTEX
  8
0
 10
2.62175
 20
4.31267
 30
0.0
 40
0
 41
0
  0
VERTEX
  8
0
 10
2.61865
 20
4.28982
 30
0.0
 40
0
 41
0
  0
VERTEX
  8
0
 10
2.61128
 20
4.2716
 30
0.0
 40
0
 41
0
  0
VERTEX
  8
0
 10
2.60607
 20
4.26253
 30
0.0
 40
0
 41
0
  0
VERTEX
  8
0
 10
2.6059
 20
4.2539
 30
0.0
 40
0
 41
0
  0
VERTEX
  8
0
 10
2.61176
 20
4.24214
 30
0.0
 40
0
 41
0
  0
VERTEX
  8
0
 10
2.62463
 20
4.22347
 30
0.0
 40
0
 41
0
  0
VERTEX
  8
0
 10
2.64518
 20
4.19249
 30
0.0
 40
0
 41
0
  0
VERTEX
  8
0
 10
2.65631
 20
4.16829
 30
0.0
 40
0
 41
0
  0
VERTEX
  8
0
 10
2.65929
 20
4.14669
 30
0.0
 40
0
 41
0
  0
VERTEX
  8
0
 10
2.65549
 20
4.12337
 30
0.0
 40
0
 41
0
  0
VERTEX
  8
0
 10
2.63981
 20
4.08713
 30
0.0
 40
0
 41
0
  0
VERTEX
  8
0
 10
2.62239
 20
4.07118
 30
0.0
 40
0
 41
0
  0
VERTEX
  8
0
 10
2.61431
 20
4.07422
 30
0.0
 40
0
 41
0
  0
VERTEX
  8
0
 10
2.60058
 20
4.08111
 30
0.0
 40
0
 41
0
  0
SEQEND
 8
0
  0
POLYLINE
  8
0
 62
     0
 66
     1
 10
0
 20
0
 30
0.0
 70
     1
 40
0
 41
0
  0
VERTEX
  8
0
 10
-0.723633
 20
5.06526
 30
0.0
 40
0
 41
0
  0
VERTEX
  8
0
 10
-0.722656
 20
5.07487
 30
0.0
 40
0
 41
0
  0
VERTEX
  8
0
 10
-0.720161
 20
5.07383
 30
0.0
 40
0
 41
0
  0
VERTEX
  8
0
 10
-0.720161
 20
5.05669
 30
0.0
 40
0
 41
0
  0
VERTEX
  8
0
 10
-0.722656
 20
5.05572
 30
0.0
 40
0
 41
0
  0
VERTEX
  8
0
 10
-0.723633
 20
5.06526
 30
0.0
 40
0
 41
0
  0
SEQEND
 8
0
  0
POLYLINE
  8
0
 62
     0
 66
     1
 10
0
 20
0
 30
0.0
 70
     1
 40
0
 41
0
  0
VERTEX
  8
0
 10
4.1716
 20
5.079
 30
0.0
 40
0
 41
0
  0
VERTEX
  8
0
 10
4.17844
 20
5.08583
 30
0.0
 40
0
 41
0
  0
VERTEX
  8
0
 10
4.18528
 20
5.079
 30
0.0
 40
0
 41
0
  0
VERTEX
  8
0
 10
4.17844
 20
5.0721
 30
0.0
 40
0
 41
0
  0
VERTEX
  8
0
 10
4.1716
 20
5.079
 30
0.0
 40
0
 41
0
  0
SEQEND
 8
0
  0
POLYLINE
  8
0
 62
     0
 66
     1
 10
0
 20
0
 30
0.0
 70
     1
 40
0
 41
0
  0
VERTEX
  8
0
 10
3.94874
 20
5.10969
 30
0.0
 40
0
 41
0
  0
VERTEX
  8
0
 10
3.90896
 20
5.11339
 30
0.0
 40
0
 41
0
  0
VERTEX
  8
0
 10
3.85656
 20
5.11643
 30
0.0
 40
0
 41
0
  0
VERTEX
  8
0
 10
3.79829
 20
5.1186
 30
0.0
 40
0
 41
0
  0
VERTEX
  8
0
 10
3.741
 20
5.11942
 30
0.0
 40
0
 41
0
  0
VERTEX
  8
0
 10
3.68918
 20
5.11979
 30
0.0
 40
0
 41
0
  0
VERTEX
  8
0
 10
3.61589
 20
5.12169
 30
0.0
 40
0
 41
0
  0
VERTEX
  8
0
 10
3.6034
 20
5.12294
 30
0.0
 40
0
 41
0
  0
VERTEX
  8
0
 10
3.59017
 20
5.12576
 30
0.0
 40
0
 41
0
  0
VERTEX
  8
0
 10
3.56586
 20
5.12788
 30
0.0
 40
0
 41
0
  0
VERTEX
  8
0
 10
3.54438
 20
5.13162
 30
0.0
 40
0
 41
0
  0
VERTEX
  8
0
 10
3.52621
 20
5.13938
 30
0.0
 40
0
 41
0
  0
VERTEX
  8
0
 10
3.514
 20
5.14947
 30
0.0
 40
0
 41
0
  0
VERTEX
  8
0
 10
3.51069
 20
5.16026
 30
0.0
 40
0
 41
0
  0
VERTEX
  8
0
 10
3.50808
 20
5.17356
 30
0.0
 40
0
 41
0
  0
VERTEX
  8
0
 10
3.50651
 20
5.18201
 30
0.0
 40
0
 41
0
  0
VERTEX
  8
0
 10
3.5109
 20
5.18604
 30
0.0
 40
0
 41
0
  0
VERTEX
  8
0
 10
3.52257
 20
5.18599
 30
0.0
 40
0
 41
0
  0
VERTEX
  8
0
 10
3.54281
 20
5.18213
 30
0.0
 40
0
 41
0
  0
VERTEX
  8
0
 10
3.57915
 20
5.17822
 30
0.0
 40
0
 41
0
  0
VERTEX
  8
0
 10
3.62776
 20
5.17947
 30
0.0
 40
0
 41
0
  0
VERTEX
  8
0
 10
3.68653
 20
5.18576
 30
0.0
 40
0
 41
0
  0
VERTEX
  8
0
 10
3.75325
 20
5.19694
 30
0.0
 40
0
 41
0
  0
VERTEX
  8
0
 10
3.79135
 20
5.20367
 30
0.0
 40
0
 41
0
  0
VERTEX
  8
0
 10
3.85161
 20
5.20768
 30
0.0
 40
0
 41
0
  0
VERTEX
  8
0
 10
3.88357
 20
5.20568
 30
0.0
 40
0
 41
0
  0
VERTEX
  8
0
 10
3.92947
 20
5.20372
 30
0.0
 40
0
 41
0
  0
VERTEX
  8
0
 10
4.01133
 20
5.2021
 30
0.0
 40
0
 41
0
  0
VERTEX
  8
0
 10
4.11762
 20
5.20107
 30
0.0
 40
0
 41
0
  0
VERTEX
  8
0
 10
4.23671
 20
5.20079
 30
0.0
 40
0
 41
0
  0
VERTEX
  8
0
 10
4.382
 20
5.20053
 30
0.0
 40
0
 41
0
  0
VERTEX
  8
0
 10
4.52962
 20
5.1964
 30
0.0
 40
0
 41
0
  0
VERTEX
  8
0
 10
4.55388
 20
5.19183
 30
0.0
 40
0
 41
0
  0
VERTEX
  8
0
 10
4.56961
 20
5.18446
 30
0.0
 40
0
 41
0
  0
VERTEX
  8
0
 10
4.57617
 20
5.17969
 30
0.0
 40
0
 41
0
  0
VERTEX
  8
0
 10
4.56847
 20
5.17242
 30
0.0
 40
0
 41
0
  0
VERTEX
  8
0
 10
4.55007
 20
5.15875
 30
0.0
 40
0
 41
0
  0
VERTEX
  8
0
 10
4.53396
 20
5.14893
 30
0.0
 40
0
 41
0
  0
VERTEX
  8
0
 10
4.51719
 20
5.1435
 30
0.0
 40
0
 41
0
  0
VERTEX
  8
0
 10
4.49289
 20
5.14117
 30
0.0
 40
0
 41
0
  0
VERTEX
  8
0
 10
4.45421
 20
5.14068
 30
0.0
 40
0
 41
0
  0
VERTEX
  8
0
 10
4.37483
 20
5.13601
 30
0.0
 40
0
 41
0
  0
VERTEX
  8
0
 10
4.27974
 20
5.12349
 30
0.0
 40
0
 41
0
  0
VERTEX
  8
0
 10
4.10101
 20
5.10394
 30
0.0
 40
0
 41
0
  0
VERTEX
  8
0
 10
3.94874
 20
5.10969
 30
0.0
 40
0
 41
0
  0
SEQEND
 8
0
  0
POLYLINE
  8
0
 62
     0
 66
     1
 10
0
 20
0
 30
0.0
 70
     1
 40
0
 41
0
  0
VERTEX
  8
0
 10
3.54069
 20
5.13644
 30
0.0
 40
0
 41
0
  0
VERTEX
  8
0
 10
3.53711
 20
5.14106
 30
0.0
 40
0
 41
0
  0
VERTEX
  8
0
 10
3.52869
 20
5.14844
 30
0.0
 40
0
 41
0
  0
VERTEX
  8
0
 10
3.52007
 20
5.15446
 30
0.0
 40
0
 41
0
  0
VERTEX
  8
0
 10
3.5261
 20
5.14583
 30
0.0
 40
0
 41
0
  0
VERTEX
  8
0
 10
3.53674
 20
5.13476
 30
0.0
 40
0
 41
0
  0
VERTEX
  8
0
 10
3.54069
 20
5.13644
 30
0.0
 40
0
 41
0
  0
SEQEND
 8
0
  0
POLYLINE
  8
0
 62
     0
 66
     1
 10
0
 20
0
 30
0.0
 70
     1
 40
0
 41
0
  0
VERTEX
  8
0
 10
4.99451
 20
5.20356
 30
0.0
 40
0
 41
0
  0
VERTEX
  8
0
 10
4.97424
 20
5.2105
 30
0.0
 40
0
 41
0
  0
VERTEX
  8
0
 10
4.96463
 20
5.21804
 30
0.0
 40
0
 41
0
  0
VERTEX
  8
0
 10
4.96468
 20
5.22803
 30
0.0
 40
0
 41
0
  0
VERTEX
  8
0
 10
4.97319
 20
5.24257
 30
0.0
 40
0
 41
0
  0
VERTEX
  8
0
 10
4.98221
 20
5.25336
 30
0.0
 40
0
 41
0
  0
VERTEX
  8
0
 10
4.99229
 20
5.26025
 30
0.0
 40
0
 41
0
  0
VERTEX
  8
0
 10
5.00635
 20
5.26443
 30
0.0
 40
0
 41
0
  0
VERTEX
  8
0
 10
5.02718
 20
5.26731
 30
0.0
 40
0
 41
0
  0
VERTEX
  8
0
 10
5.04867
 20
5.27029
 30
0.0
 40
0
 41
0
  0
VERTEX
  8
0
 10
5.07813
 20
5.27533
 30
0.0
 40
0
 41
0
  0
VERTEX
  8
0
 10
5.1116
 20
5.28168
 30
0.0
 40
0
 41
0
  0
VERTEX
  8
0
 10
5.14535
 20
5.28868
 30
0.0
 40
0
 41
0
  0
VERTEX
  8
0
 10
5.21181
 20
5.30311
 30
0.0
 40
0
 41
0
  0
VERTEX
  8
0
 10
5.2595
 20
5.31304
 30
0.0
 40
0
 41
0
  0
VERTEX
  8
0
 10
5.30072
 20
5.3209
 30
0.0
 40
0
 41
0
  0
VERTEX
  8
0
 10
5.34765
 20
5.32915
 30
0.0
 40
0
 41
0
  0
VERTEX
  8
0
 10
5.40224
 20
5.34033
 30
0.0
 40
0
 41
0
  0
VERTEX
  8
0
 10
5.45182
 20
5.35335
 30
0.0
 40
0
 41
0
  0
VERTEX
  8
0
 10
5.48703
 20
5.36544
 30
0.0
 40
0
 41
0
  0
VERTEX
  8
0
 10
5.49854
 20
5.37386
 30
0.0
 40
0
 41
0
  0
VERTEX
  8
0
 10
5.50667
 20
5.38286
 30
0.0
 40
0
 41
0
  0
VERTEX
  8
0
 10
5.53733
 20
5.3935
 30
0.0
 40
0
 41
0
  0
VERTEX
  8
0
 10
5.5855
 20
5.4044
 30
0.0
 40
0
 41
0
  0
VERTEX
  8
0
 10
5.64626
 20
5.41428
 30
0.0
 40
0
 41
0
  0
VERTEX
  8
0
 10
5.67122
 20
5.41954
 30
0.0
 40
0
 41
0
  0
VERTEX
  8
0
 10
5.70606
 20
5.42925
 30
0.0
 40
0
 41
0
  0
VERTEX
  8
0
 10
5.7461
 20
5.44211
 30
0.0
 40
0
 41
0
  0
VERTEX
  8
0
 10
5.78683
 20
5.4566
 30
0.0
 40
0
 41
0
  0
VERTEX
  8
0
 10
5.89469
 20
5.4949
 30
0.0
 40
0
 41
0
  0
VERTEX
  8
0
 10
5.97592
 20
5.51807
 30
0.0
 40
0
 41
0
  0
VERTEX
  8
0
 10
6.02929
 20
5.52593
 30
0.0
 40
0
 41
0
  0
VERTEX
  8
0
 10
6.05382
 20
5.51818
 30
0.0
 40
0
 41
0
  0
VERTEX
  8
0
 10
6.05425
 20
5.50424
 30
0.0
 40
0
 41
0
  0
VERTEX
  8
0
 10
6.04542
 20
5.48426
 30
0.0
 40
0
 41
0
  0
VERTEX
  8
0
 10
6.02946
 20
5.46224
 30
0.0
 40
0
 41
0
  0
VERTEX
  8
0
 10
6.00879
 20
5.44194
 30
0.0
 40
0
 41
0
  0
VERTEX
  8
0
 10
5.95079
 20
5.39865
 30
0.0
 40
0
 41
0
  0
VERTEX
  8
0
 10
5.89817
 20
5.37207
 30
0.0
 40
0
 41
0
  0
VERTEX
  8
0
 10
5.83328
 20
5.35574
 30
0.0
 40
0
 41
0
  0
VERTEX
  8
0
 10
5.73856
 20
5.34332
 30
0.0
 40
0
 41
0
  0
VERTEX
  8
0
 10
5.67236
 20
5.33469
 30
0.0
 40
0
 41
0
  0
VERTEX
  8
0
 10
5.60915
 20
5.32249
 30
0.0
 40
0
 41
0
  0
VERTEX
  8
0
 10
5.53608
 20
5.30376
 30
0.0
 40
0
 41
0
  0
VERTEX
  8
0
 10
5.44026
 20
5.27572
 30
0.0
 40
0
 41
0
  0
VERTEX
  8
0
 10
5.40528
 20
5.26563
 30
0.0
 40
0
 41
0
  0
VERTEX
  8
0
 10
5.36843
 20
5.25569
 30
0.0
 40
0
 41
0
  0
VERTEX
  8
0
 10
5.33404
 20
5.24707
 30
0.0
 40
0
 41
0
  0
VERTEX
  8
0
 10
5.30653
 20
5.24094
 30
0.0
 40
0
 41
0
  0
VERTEX
  8
0
 10
5.24219
 20
5.22987
 30
0.0
 40
0
 41
0
  0
VERTEX
  8
0
 10
5.14535
 20
5.21442
 30
0.0
 40
0
 41
0
  0
VERTEX
  8
0
 10
5.05701
 20
5.20107
 30
0.0
 40
0
 41
0
  0
VERTEX
  8
0
 10
5.0185
 20
5.19618
 30
0.0
 40
0
 41
0
  0
VERTEX
  8
0
 10
5.01144
 20
5.19862
 30
0.0
 40
0
 41
0
  0
VERTEX
  8
0
 10
4.99451
 20
5.20356
 30
0.0
 40
0
 41
0
  0
SEQEND
 8
0
  0
POLYLINE
  8
0
 62
     0
 66
     1
 10
0
 20
0
 30
0.0
 70
     1
 40
0
 41
0
  0
VERTEX
  8
0
 10
6.2321
 20
5.54574
 30
0.0
 40
0
 41
0
  0
VERTEX
  8
0
 10
6.22483
 20
5.56733
 30
0.0
 40
0
 41
0
  0
VERTEX
  8
0
 10
6.22917
 20
5.59076
 30
0.0
 40
0
 41
0
  0
VERTEX
  8
0
 10
6.23226
 20
5.59864
 30
0.0
 40
0
 41
0
  0
VERTEX
  8
0
 10
6.23693
 20
5.60579
 30
0.0
 40
0
 41
0
  0
VERTEX
  8
0
 10
6.24463
 20
5.61312
 30
0.0
 40
0
 41
0
  0
VERTEX
  8
0
 10
6.257
 20
5.62158
 30
0.0
 40
0
 41
0
  0
VERTEX
  8
0
 10
6.27539
 20
5.63217
 30
0.0
 40
0
 41
0
  0
VERTEX
  8
0
 10
6.30138
 20
5.64572
 30
0.0
 40
0
 41
0
  0
VERTEX
  8
0
 10
6.33649
 20
5.66325
 30
0.0
 40
0
 41
0
  0
VERTEX
  8
0
 10
6.38217
 20
5.6856
 30
0.0
 40
0
 41
0
  0
VERTEX
  8
0
 10
6.44331
 20
5.71463
 30
0.0
 40
0
 41
0
  0
VERTEX
  8
0
 10
6.50265
 20
5.74115
 30
0.0
 40
0
 41
0
  0
VERTEX
  8
0
 10
6.55339
 20
5.76232
 30
0.0
 40
0
 41
0
  0
VERTEX
  8
0
 10
6.58882
 20
5.77517
 30
0.0
 40
0
 41
0
  0
VERTEX
  8
0
 10
6.6454
 20
5.79557
 30
0.0
 40
0
 41
0
  0
VERTEX
  8
0
 10
6.6951
 20
5.81808
 30
0.0
 40
0
 41
0
  0
VERTEX
  8
0
 10
6.73839
 20
5.8411
 30
0.0
 40
0
 41
0
  0
VERTEX
  8
0
 10
6.77354
 20
5.85889
 30
0.0
 40
0
 41
0
  0
VERTEX
  8
0
 10
6.79829
 20
5.87039
 30
0.0
 40
0
 41
0
  0
VERTEX
  8
0
 10
6.81033
 20
5.87446
 30
0.0
 40
0
 41
0
  0
VERTEX
  8
0
 10
6.8279
 20
5.88346
 30
0.0
 40
0
 41
0
  0
VERTEX
  8
0
 10
6.86242
 20
5.90506
 30
0.0
 40
0
 41
0
  0
VERTEX
  8
0
 10
6.90674
 20
5.93093
 30
0.0
 40
0
 41
0
  0
VERTEX
  8
0
 10
6.94781
 20
5.95008
 30
0.0
 40
0
 41
0
  0
VERTEX
  8
0
 10
7.06532
 20
6.00711
 30
0.0
 40
0
 41
0
  0
VERTEX
  8
0
 10
7.21294
 20
6.10086
 30
0.0
 40
0
 41
0
  0
VERTEX
  8
0
 10
7.25874
 20
6.13243
 30
0.0
 40
0
 41
0
  0
VERTEX
  8
0
 10
7.3074
 20
6.16569
 30
0.0
 40
0
 41
0
  0
VERTEX
  8
0
 10
7.35308
 20
6.19678
 30
0.0
 40
0
 41
0
  0
VERTEX
  8
0
 10
7.39003
 20
6.22168
 30
0.0
 40
0
 41
0
  0
VERTEX
  8
0
 10
7.42111
 20
6.24283
 30
0.0
 40
0
 41
0
  0
VERTEX
  8
0
 10
7.45085
 20
6.26367
 30
0.0
 40
0
 41
0
  0
VERTEX
  8
0
 10
7.47592
 20
6.28179
 30
0.0
 40
0
 41
0
  0
VERTEX
  8
0
 10
7.49289
 20
6.29482
 30
0.0
 40
0
 41
0
  0
VERTEX
  8
0
 10
7.52919
 20
6.3221
 30
0.0
 40
0
 41
0
  0
VERTEX
  8
0
 10
7.57639
 20
6.35482
 30
0.0
 40
0
 41
0
  0
VERTEX
  8
0
 10
7.60146
 20
6.37289
 30
0.0
 40
0
 41
0
  0
VERTEX
  8
0
 10
7.62924
 20
6.39501
 30
0.0
 40
0
 41
0
  0
VERTEX
  8
0
 10
7.65625
 20
6.4184
 30
0.0
 40
0
 41
0
  0
VERTEX
  8
0
 10
7.67925
 20
6.44021
 30
0.0
 40
0
 41
0
  0
VERTEX
  8
0
 10
7.7021
 20
6.46203
 30
0.0
 40
0
 41
0
  0
VERTEX
  8
0
 10
7.72879
 20
6.48525
 30
0.0
 40
0
 41
0
  0
VERTEX
  8
0
 10
7.75603
 20
6.50711
 30
0.0
 40
0
 41
0
  0
VERTEX
  8
0
 10
7.78049
 20
6.52485
 30
0.0
 40
0
 41
0
  0
VERTEX
  8
0
 10
7.82454
 20
6.55751
 30
0.0
 40
0
 41
0
  0
VERTEX
  8
0
 10
7.8559
 20
6.58561
 30
0.0
 40
0
 41
0
  0
VERTEX
  8
0
 10
7.90554
 20
6.63792
 30
0.0
 40
0
 41
0
  0
VERTEX
  8
0
 10
7.96094
 20
6.69103
 30
0.0
 40
0
 41
0
  0
VERTEX
  8
0
 10
8.01432
 20
6.74854
 30
0.0
 40
0
 41
0
  0
VERTEX
  8
0
 10
8.05686
 20
6.81114
 30
0.0
 40
0
 41
0
  0
VERTEX
  8
0
 10
8.072
 20
6.83751
 30
0.0
 40
0
 41
0
  0
VERTEX
  8
0
 10
8.08242
 20
6.85363
 30
0.0
 40
0
 41
0
  0
VERTEX
  8
0
 10
8.08513
 20
6.86681
 30
0.0
 40
0
 41
0
  0
VERTEX
  8
0
 10
8.07596
 20
6.8851
 30
0.0
 40
0
 41
0
  0
VERTEX
  8
0
 10
8.05442
 20
6.90913
 30
0.0
 40
0
 41
0
  0
VERTEX
  8
0
 10
8.02001
 20
6.93961
 30
0.0
 40
0
 41
0
  0
VERTEX
  8
0
 10
7.96929
 20
6.98893
 30
0.0
 40
0
 41
0
  0
VERTEX
  8
0
 10
7.91792
 20
7.0536
 30
0.0
 40
0
 41
0
  0
VERTEX
  8
0
 10
7.89638
 20
7.08328
 30
0.0
 40
0
 41
0
  0
VERTEX
  8
0
 10
7.87608
 20
7.11046
 30
0.0
 40
0
 41
0
  0
VERTEX
  8
0
 10
7.85921
 20
7.13222
 30
0.0
 40
0
 41
0
  0
VERTEX
  8
0
 10
7.84814
 20
7.14546
 30
0.0
 40
0
 41
0
  0
VERTEX
  8
0
 10
7.81847
 20
7.17008
 30
0.0
 40
0
 41
0
  0
VERTEX
  8
0
 10
7.77468
 20
7.19661
 30
0.0
 40
0
 41
0
  0
VERTEX
  8
0
 10
7.72054
 20
7.22299
 30
0.0
 40
0
 41
0
  0
VERTEX
  8
0
 10
7.65994
 20
7.24707
 30
0.0
 40
0
 41
0
  0
VERTEX
  8
0
 10
7.62147
 20
7.26113
 30
0.0
 40
0
 41
0
  0
VERTEX
  8
0
 10
7.57351
 20
7.27914
 30
0.0
 40
0
 41
0
  0
VERTEX
  8
0
 10
7.52214
 20
7.29883
 30
0.0
 40
0
 41
0
  0
VERTEX
  8
0
 10
7.47353
 20
7.31782
 30
0.0
 40
0
 41
0
  0
VERTEX
  8
0
 10
7.42443
 20
7.33669
 30
0.0
 40
0
 41
0
  0
VERTEX
  8
0
 10
7.37185
 20
7.3559
 30
0.0
 40
0
 41
0
  0
VERTEX
  8
0
 10
7.3221
 20
7.37321
 30
0.0
 40
0
 41
0
  0
VERTEX
  8
0
 10
7.28153
 20
7.38639
 30
0.0
 40
0
 41
0
  0
VERTEX
  8
0
 10
7.24468
 20
7.39779
 30
0.0
 40
0
 41
0
  0
VERTEX
  8
0
 10
7.20524
 20
7.41026
 30
0.0
 40
0
 41
0
  0
VERTEX
  8
0
 10
7.16797
 20
7.42231
 30
0.0
 40
0
 41
0
  0
VERTEX
  8
0
 10
7.13753
 20
7.4324
 30
0.0
 40
0
 41
0
  0
VERTEX
  8
0
 10
7.08436
 20
7.44971
 30
0.0
 40
0
 41
0
  0
VERTEX
  8
0
 10
7.04124
 20
7.46197
 30
0.0
 40
0
 41
0
  0
VERTEX
  8
0
 10
7.00385
 20
7.47032
 30
0.0
 40
0
 41
0
  0
VERTEX
  8
0
 10
6.96815
 20
7.47586
 30
0.0
 40
0
 41
0
  0
VERTEX
  8
0
 10
6.93642
 20
7.48275
 30
0.0
 40
0
 41
0
  0
VERTEX
  8
0
 10
6.91764
 20
7.49333
 30
0.0
 40
0
 41
0
  0
VERTEX
  8
0
 10
6.91086
 20
7.50722
 30
0.0
 40
0
 41
0
  0
VERTEX
  8
0
 10
6.92703
 20
7.52686
 30
0.0
 40
0
 41
0
  0
VERTEX
  8
0
 10
6.94444
 20
7.54085
 30
0.0
 40
0
 41
0
  0
VERTEX
  8
0
 10
6.96582
 20
7.54688
 30
0.0
 40
0
 41
0
  0
VERTEX
  8
0
 10
6.99892
 20
7.54562
 30
0.0
 40
0
 41
0
  0
VERTEX
  8
0
 10
7.05181
 20
7.53787
 30
0.0
 40
0
 41
0
  0
VERTEX
  8
0
 10
7.15369
 20
7.50988
 30
0.0
 40
0
 41
0
  0
VERTEX
  8
0
 10
7.3055
 20
7.45187
 30
0.0
 40
0
 41
0
  0
VERTEX
  8
0
 10
7.34375
 20
7.43869
 30
0.0
 40
0
 41
0
  0
VERTEX
  8
0
 10
7.39242
 20
7.42486
 30
0.0
 40
0
 41
0
  0
VERTEX
  8
0
 10
7.42404
 20
7.4159
 30
0.0
 40
0
 41
0
  0
VERTEX
  8
0
 10
7.46886
 20
7.40196
 30
0.0
 40
0
 41
0
  0
VERTEX
  8
0
 10
7.52089
 20
7.38499
 30
0.0
 40
0
 41
0
  0
VERTEX
  8
0
 10
7.57411
 20
7.36692
 30
0.0
 40
0
 41
0
  0
VERTEX
  8
0
 10
7.62478
 20
7.34961
 30
0.0
 40
0
 41
0
  0
VERTEX
  8
0
 10
7.66992
 20
7.33469
 30
0.0
 40
0
 41
0
  0
VERTEX
  8
0
 10
7.70458
 20
7.32378
 30
0.0
 40
0
 41
0
  0
VERTEX
  8
0
 10
7.72385
 20
7.31853
 30
0.0
 40
0
 41
0
  0
VERTEX
  8
0
 10
7.74783
 20
7.31375
 30
0.0
 40
0
 41
0
  0
VERTEX
  8
0
 10
7.72043
 20
7.33003
 30
0.0
 40
0
 41
0
  0
VERTEX
  8
0
 10
7.69863
 20
7.34039
 30
0.0
 40
0
 41
0
  0
VERTEX
  8
0
 10
7.68793
 20
7.33903
 30
0.0
 40
0
 41
0
  0
VERTEX
  8
0
 10
7.68278
 20
7.34256
 30
0.0
 40
0
 41
0
  0
VERTEX
  8
0
 10
7.67068
 20
7.3571
 30
0.0
 40
0
 41
0
  0
VERTEX
  8
0
 10
7.64139
 20
7.37685
 30
0.0
 40
0
 41
0
  0
VERTEX
  8
0
 10
7.61951
 20
7.38943
 30
0.0
 40
0
 41
0
  0
VERTEX
  8
0
 10
7.5906
 20
7.40619
 30
0.0
 40
0
 41
0
  0
VERTEX
  8
0
 10
7.55832
 20
7.42503
 30
0.0
 40
0
 41
0
  0
VERTEX
  8
0
 10
7.52653
 20
7.44368
 30
0.0
 40
0
 41
0
  0
VERTEX
  8
0
 10
7.46724
 20
7.47493
 30
0.0
 40
0
 41
0
  0
VERTEX
  8
0
 10
7.39714
 20
7.50092
 30
0.0
 40
0
 41
0
  0
VERTEX
  8
0
 10
7.29362
 20
7.52864
 30
0.0
 40
0
 41
0
  0
VERTEX
  8
0
 10
7.13406
 20
7.565
 30
0.0
 40
0
 41
0
  0
VERTEX
  8
0
 10
7.07656
 20
7.5779
 30
0.0
 40
0
 41
0
  0
VERTEX
  8
0
 10
7.01882
 20
7.59125
 30
0.0
 40
0
 41
0
  0
VERTEX
  8
0
 10
6.96761
 20
7.60346
 30
0.0
 40
0
 41
0
  0
VERTEX
  8
0
 10
6.92964
 20
7.6129
 30
0.0
 40
0
 41
0
  0
VERTEX
  8
0
 10
6.88921
 20
7.62315
 30
0.0
 40
0
 41
0
  0
VERTEX
  8
0
 10
6.86649
 20
7.62717
 30
0.0
 40
0
 41
0
  0
VERTEX
  8
0
 10
6.85417
 20
7.62554
 30
0.0
 40
0
 41
0
  0
VERTEX
  8
0
 10
6.84489
 20
7.61865
 30
0.0
 40
0
 41
0
  0
VERTEX
  8
0
 10
6.83399
 20
7.61197
 30
0.0
 40
0
 41
0
  0
VERTEX
  8
0
 10
6.81472
 20
7.6084
 30
0.0
 40
0
 41
0
  0
VERTEX
  8
0
 10
6.77843
 20
7.60736
 30
0.0
 40
0
 41
0
  0
VERTEX
  8
0
 10
6.71674
 20
7.60801
 30
0.0
 40
0
 41
0
  0
VERTEX
  8
0
 10
6.65343
 20
7.60965
 30
0.0
 40
0
 41
0
  0
VERTEX
  8
0
 10
6.61268
 20
7.61268
 30
0.0
 40
0
 41
0
  0
VERTEX
  8
0
 10
6.58301
 20
7.61854
 30
0.0
 40
0
 41
0
  0
VERTEX
  8
0
 10
6.553
 20
7.62864
 30
0.0
 40
0
 41
0
  0
VERTEX
  8
0
 10
6.51785
 20
7.64438
 30
0.0
 40
0
 41
0
  0
VERTEX
  8
0
 10
6.50325
 20
7.65619
 30
0.0
 40
0
 41
0
  0
VERTEX
  8
0
 10
6.50553
 20
7.66835
 30
0.0
 40
0
 41
0
  0
VERTEX
  8
0
 10
6.51112
 20
7.6799
 30
0.0
 40
0
 41
0
  0
VERTEX
  8
0
 10
6.51764
 20
7.68713
 30
0.0
 40
0
 41
0
  0
VERTEX
  8
0
 10
6.52279
 20
7.68647
 30
0.0
 40
0
 41
0
  0
VERTEX
  8
0
 10
6.55658
 20
7.67979
 30
0.0
 40
0
 41
0
  0
VERTEX
  8
0
 10
6.62756
 20
7.67453
 30
0.0
 40
0
 41
0
  0
VERTEX
  8
0
 10
6.70231
 20
7.67231
 30
0.0
 40
0
 41
0
  0
VERTEX
  8
0
 10
6.74772
 20
7.67492
 30
0.0
 40
0
 41
0
  0
VERTEX
  8
0
 10
6.75086
 20
7.67806
 30
0.0
 40
0
 41
0
  0
VERTEX
  8
0
 10
6.73796
 20
7.68147
 30
0.0
 40
0
 41
0
  0
VERTEX
  8
0
 10
6.70736
 20
7.68544
 30
0.0
 40
0
 41
0
  0
VERTEX
  8
0
 10
6.6575
 20
7.69026
 30
0.0
 40
0
 41
0
  0
VERTEX
  8
0
 10
6.61133
 20
7.69417
 30
0.0
 40
0
 41
0
  0
VERTEX
  8
0
 10
6.56683
 20
7.69749
 30
0.0
 40
0
 41
0
  0
VERTEX
  8
0
 10
6.52914
 20
7.69993
 30
0.0
 40
0
 41
0
  0
VERTEX
  8
0
 10
6.50319
 20
7.70101
 30
0.0
 40
0
 41
0
  0
VERTEX
  8
0
 10
6.45861
 20
7.70204
 30
0.0
 40
0
 41
0
  0
VERTEX
  8
0
 10
6.46104
 20
7.49631
 30
0.0
 40
0
 41
0
  0
VERTEX
  8
0
 10
6.46181
 20
7.38997
 30
0.0
 40
0
 41
0
  0
VERTEX
  8
0
 10
6.46094
 20
7.32031
 30
0.0
 40
0
 41
0
  0
VERTEX
  8
0
 10
6.4579
 20
7.27544
 30
0.0
 40
0
 41
0
  0
VERTEX
  8
0
 10
6.45236
 20
7.24349
 30
0.0
 40
0
 41
0
  0
VERTEX
  8
0
 10
6.4471
 20
7.22319
 30
0.0
 40
0
 41
0
  0
VERTEX
  8
0
 10
6.44125
 20
7.20568
 30
0.0
 40
0
 41
0
  0
VERTEX
  8
0
 10
6.43371
 20
7.18956
 30
0.0
 40
0
 41
0
  0
VERTEX
  8
0
 10
6.42339
 20
7.17329
 30
0.0
 40
0
 41
0
  0
VERTEX
  8
0
 10
6.40935
 20
7.15543
 30
0.0
 40
0
 41
0
  0
VERTEX
  8
0
 10
6.3904
 20
7.1346
 30
0.0
 40
0
 41
0
  0
VERTEX
  8
0
 10
6.36561
 20
7.10926
 30
0.0
 40
0
 41
0
  0
VERTEX
  8
0
 10
6.33399
 20
7.07796
 30
0.0
 40
0
 41
0
  0
VERTEX
  8
0
 10
6.29389
 20
7.03782
 30
0.0
 40
0
 41
0
  0
VERTEX
  8
0
 10
6.26725
 20
7.00786
 30
0.0
 40
0
 41
0
  0
VERTEX
  8
0
 10
6.24935
 20
6.98236
 30
0.0
 40
0
 41
0
  0
VERTEX
  8
0
 10
6.23557
 20
6.95551
 30
0.0
 40
0
 41
0
  0
VERTEX
  8
0
 10
6.22168
 20
6.92122
 30
0.0
 40
0
 41
0
  0
VERTEX
  8
0
 10
6.2181
 20
6.90474
 30
0.0
 40
0
 41
0
  0
VERTEX
  8
0
 10
6.21565
 20
6.89344
 30
0.0
 40
0
 41
0
  0
VERTEX
  8
0
 10
6.21089
 20
6.88422
 30
0.0
 40
0
 41
0
  0
VERTEX
  8
0
 10
6.20225
 20
6.86447
 30
0.0
 40
0
 41
0
  0
VERTEX
  8
0
 10
6.19108
 20
6.83767
 30
0.0
 40
0
 41
0
  0
VERTEX
  8
0
 10
6.17876
 20
6.8074
 30
0.0
 40
0
 41
0
  0
VERTEX
  8
0
 10
6.16678
 20
6.77701
 30
0.0
 40
0
 41
0
  0
VERTEX
  8
0
 10
6.15647
 20
6.75017
 30
0.0
 40
0
 41
0
  0
VERTEX
  8
0
 10
6.14931
 20
6.73025
 30
0.0
 40
0
 41
0
  0
VERTEX
  8
0
 10
6.1466
 20
6.72081
 30
0.0
 40
0
 41
0
  0
VERTEX
  8
0
 10
6.14382
 20
6.71376
 30
0.0
 40
0
 41
0
  0
VERTEX
  8
0
 10
6.13639
 20
6.69764
 30
0.0
 40
0
 41
0
  0
VERTEX
  8
0
 10
6.12532
 20
6.67492
 30
0.0
 40
0
 41
0
  0
VERTEX
  8
0
 10
6.11187
 20
6.64789
 30
0.0
 40
0
 41
0
  0
VERTEX
  8
0
 10
6.08572
 20
6.58936
 30
0.0
 40
0
 41
0
  0
VERTEX
  8
0
 10
6.07374
 20
6.54742
 30
0.0
 40
0
 41
0
  0
VERTEX
  8
0
 10
6.07269
 20
6.52946
 30
0.0
 40
0
 41
0
  0
VERTEX
  8
0
 10
6.07514
 20
6.5146
 30
0.0
 40
0
 41
0
  0
VERTEX
  8
0
 10
6.08219
 20
6.49881
 30
0.0
 40
0
 41
0
  0
VERTEX
  8
0
 10
6.09526
 20
6.47771
 30
0.0
 40
0
 41
0
  0
VERTEX
  8
0
 10
6.11985
 20
6.44613
 30
0.0
 40
0
 41
0
  0
VERTEX
  8
0
 10
6.14399
 20
6.4235
 30
0.0
 40
0
 41
0
  0
VERTEX
  8
0
 10
6.15875
 20
6.41129
 30
0.0
 40
0
 41
0
  0
VERTEX
  8
0
 10
6.16097
 20
6.40256
 30
0.0
 40
0
 41
0
  0
VERTEX
  8
0
 10
6.15007
 20
6.39632
 30
0.0
 40
0
 41
0
  0
VERTEX
  8
0
 10
6.12554
 20
6.39154
 30
0.0
 40
0
 41
0
  0
VERTEX
  8
0
 10
6.10753
 20
6.38992
 30
0.0
 40
0
 41
0
  0
VERTEX
  8
0
 10
6.09397
 20
6.39258
 30
0.0
 40
0
 41
0
  0
VERTEX
  8
0
 10
6.07943
 20
6.40186
 30
0.0
 40
0
 41
0
  0
VERTEX
  8
0
 10
6.05838
 20
6.42008
 30
0.0
 40
0
 41
0
  0
VERTEX
  8
0
 10
6.04021
 20
6.43576
 30
0.0
 40
0
 41
0
  0
VERTEX
  8
0
 10
6.02806
 20
6.44428
 30
0.0
 40
0
 41
0
  0
VERTEX
  8
0
 10
6.02046
 20
6.44646
 30
0.0
 40
0
 41
0
  0
VERTEX
  8
0
 10
6.01579
 20
6.44308
 30
0.0
 40
0
 41
0
  0
VERTEX
  8
0
 10
6.00956
 20
6.42719
 30
0.0
 40
0
 41
0
  0
VERTEX
  8
0
 10
6.0039
 20
6.41401
 30
0.0
 40
0
 41
0
  0
VERTEX
  8
0
 10
5.99056
 20
6.39085
 30
0.0
 40
0
 41
0
  0
VERTEX
  8
0
 10
5.96832
 20
6.36447
 30
0.0
 40
0
 41
0
  0
VERTEX
  8
0
 10
5.93696
 20
6.3399
 30
0.0
 40
0
 41
0
  0
VERTEX
  8
0
 10
5.89936
 20
6.31917
 30
0.0
 40
0
 41
0
  0
VERTEX
  8
0
 10
5.85856
 20
6.30414
 30
0.0
 40
0
 41
0
  0
VERTEX
  8
0
 10
5.82764
 20
6.29546
 30
0.0
 40
0
 41
0
  0
VERTEX
  8
0
 10
5.80626
 20
6.28922
 30
0.0
 40
0
 41
0
  0
VERTEX
  8
0
 10
5.79308
 20
6.28976
 30
0.0
 40
0
 41
0
  0
VERTEX
  8
0
 10
5.78429
 20
6.30604
 30
0.0
 40
0
 41
0
  0
VERTEX
  8
0
 10
5.78131
 20
6.32747
 30
0.0
 40
0
 41
0
  0
VERTEX
  8
0
 10
5.79606
 20
6.34944
 30
0.0
 40
0
 41
0
  0
VERTEX
  8
0
 10
5.82514
 20
6.38775
 30
0.0
 40
0
 41
0
  0
VERTEX
  8
0
 10
5.86111
 20
6.44065
 30
0.0
 40
0
 41
0
  0
VERTEX
  8
0
 10
5.89432
 20
6.49365
 30
0.0
 40
0
 41
0
  0
VERTEX
  8
0
 10
5.91531
 20
6.53201
 30
0.0
 40
0
 41
0
  0
VERTEX
  8
0
 10
5.92356
 20
6.55354
 30
0.0
 40
0
 41
0
  0
VERTEX
  8
0
 10
5.93576
 20
6.58865
 30
0.0
 40
0
 41
0
  0
VERTEX
  8
0
 10
5.95019
 20
6.63249
 30
0.0
 40
0
 41
0
  0
VERTEX
  8
0
 10
5.96533
 20
6.68024
 30
0.0
 40
0
 41
0
  0
VERTEX
  8
0
 10
5.99371
 20
6.76981
 30
0.0
 40
0
 41
0
  0
VERTEX
  8
0
 10
6.01682
 20
6.83692
 30
0.0
 40
0
 41
0
  0
VERTEX
  8
0
 10
6.03614
 20
6.88574
 30
0.0
 40
0
 41
0
  0
VERTEX
  8
0
 10
6.05317
 20
6.92019
 30
0.0
 40
0
 41
0
  0
VERTEX
  8
0
 10
6.06689
 20
6.94667
 30
0.0
 40
0
 41
0
  0
VERTEX
  8
0
 10
6.07807
 20
6.97168
 30
0.0
 40
0
 41
0
  0
VERTEX
  8
0
 10
6.09924
 20
7.01688
 30
0.0
 40
0
 41
0
  0
VERTEX
  8
0
 10
6.12901
 20
7.06614
 30
0.0
 40
0
 41
0
  0
VERTEX
  8
0
 10
6.16476
 20
7.11561
 30
0.0
 40
0
 41
0
  0
VERTEX
  8
0
 10
6.204
 20
7.16135
 30
0.0
 40
0
 41
0
  0
VERTEX
  8
0
 10
6.22672
 20
7.18614
 30
0.0
 40
0
 41
0
  0
VERTEX
  8
0
 10
6.24658
 20
7.20865
 30
0.0
 40
0
 41
0
  0
VERTEX
  8
0
 10
6.26133
 20
7.22646
 30
0.0
 40
0
 41
0
  0
VERTEX
  8
0
 10
6.26899
 20
7.23708
 30
0.0
 40
0
 41
0
  0
VERTEX
  8
0
 10
6.28413
 20
7.28033
 30
0.0
 40
0
 41
0
  0
VERTEX
  8
0
 10
6.29861
 20
7.34728
 30
0.0
 40
0
 41
0
  0
VERTEX
  8
0
 10
6.31071
 20
7.428
 30
0.0
 40
0
 41
0
  0
VERTEX
  8
0
 10
6.31863
 20
7.51243
 30
0.0
 40
0
 41
0
  0
VERTEX
  8
0
 10
6.32596
 20
7.64953
 30
0.0
 40
0
 41
0
  0
VERTEX
  8
0
 10
6.33128
 20
7.78299
 30
0.0
 40
0
 41
0
  0
VERTEX
  8
0
 10
6.33361
 20
7.88644
 30
0.0
 40
0
 41
0
  0
VERTEX
  8
0
 10
6.33219
 20
7.9336
 30
0.0
 40
0
 41
0
  0
VERTEX
  8
0
 10
6.32861
 20
7.93869
 30
0.0
 40
0
 41
0
  0
VERTEX
  8
0
 10
6.32189
 20
7.93761
 30
0.0
 40
0
 41
0
  0
VERTEX
  8
0
 10
6.30989
 20
7.92931
 30
0.0
 40
0
 41
0
  0
VERTEX
  8
0
 10
6.29042
 20
7.91265
 30
0.0
 40
0
 41
0
  0
VERTEX
  8
0
 10
6.25439
 20
7.8839
 30
0.0
 40
0
 41
0
  0
VERTEX
  8
0
 10
6.2206
 20
7.861
 30
0.0
 40
0
 41
0
  0
VERTEX
  8
0
 10
6.18832
 20
7.84239
 30
0.0
 40
0
 41
0
  0
VERTEX
  8
0
 10
6.1805
 20
7.85699
 30
0.0
 40
0
 41
0
  0
VERTEX
  8
0
 10
6.17632
 20
7.87831
 30
0.0
 40
0
 41
0
  0
VERTEX
  8
0
 10
6.17686
 20
7.91058
 30
0.0
 40
0
 41
0
  0
VERTEX
  8
0
 10
6.18132
 20
7.94401
 30
0.0
 40
0
 41
0
  0
VERTEX
  8
0
 10
6.18896
 20
7.96875
 30
0.0
 40
0
 41
0
  0
VERTEX
  8
0
 10
6.20464
 20
7.99104
 30
0.0
 40
0
 41
0
  0
VERTEX
  8
0
 10
6.23188
 20
8.02431
 30
0.0
 40
0
 41
0
  0
VERTEX
  8
0
 10
6.26981
 20
8.0695
 30
0.0
 40
0
 41
0
  0
VERTEX
  8
0
 10
6.31147
 20
8.12022
 30
0.0
 40
0
 41
0
  0
VERTEX
  8
0
 10
6.33057
 20
8.14344
 30
0.0
 40
0
 41
0
  0
VERTEX
  8
0
 10
6.34988
 20
8.16601
 30
0.0
 40
0
 41
0
  0
VERTEX
  8
0
 10
6.36719
 20
8.18549
 30
0.0
 40
0
 41
0
  0
VERTEX
  8
0
 10
6.38015
 20
8.19911
 30
0.0
 40
0
 41
0
  0
VERTEX
  8
0
 10
6.40875
 20
8.23958
 30
0.0
 40
0
 41
0
  0
VERTEX
  8
0
 10
6.44857
 20
8.30821
 30
0.0
 40
0
 41
0
  0
VERTEX
  8
0
 10
6.4866
 20
8.38146
 30
0.0
 40
0
 41
0
  0
VERTEX
  8
0
 10
6.50993
 20
8.43576
 30
0.0
 40
0
 41
0
  0
VERTEX
  8
0
 10
6.51568
 20
8.45156
 30
0.0
 40
0
 41
0
  0
VERTEX
  8
0
 10
6.52507
 20
8.47428
 30
0.0
 40
0
 41
0
  0
VERTEX
  8
0
 10
6.53674
 20
8.50082
 30
0.0
 40
0
 41
0
  0
VERTEX
  8
0
 10
6.54943
 20
8.52821
 30
0.0
 40
0
 41
0
  0
VERTEX
  8
0
 10
6.56554
 20
8.56392
 30
0.0
 40
0
 41
0
  0
VERTEX
  8
0
 10
6.57542
 20
8.59153
 30
0.0
 40
0
 41
0
  0
VERTEX
  8
0
 10
6.58089
 20
8.61774
 30
0.0
 40
0
 41
0
  0
VERTEX
  8
0
 10
6.58382
 20
8.64899
 30
0.0
 40
0
 41
0
  0
VERTEX
  8
0
 10
6.58419
 20
8.69689
 30
0.0
 40
0
 41
0
  0
VERTEX
  8
0
 10
6.57835
 20
8.74007
 30
0.0
 40
0
 41
0
  0
VERTEX
  8
0
 10
6.56511
 20
8.78353
 30
0.0
 40
0
 41
0
  0
VERTEX
  8
0
 10
6.54346
 20
8.83197
 30
0.0
 40
0
 41
0
  0
VERTEX
  8
0
 10
6.52621
 20
8.87239
 30
0.0
 40
0
 41
0
  0
VERTEX
  8
0
 10
6.51747
 20
8.90593
 30
0.0
 40
0
 41
0
  0
VERTEX
  8
0
 10
6.51774
 20
8.93007
 30
0.0
 40
0
 41
0
  0
VERTEX
  8
0
 10
6.52729
 20
8.94233
 30
0.0
 40
0
 41
0
  0
VERTEX
  8
0
 10
6.54719
 20
8.94646
 30
0.0
 40
0
 41
0
  0
VERTEX
  8
0
 10
6.58062
 20
8.95074
 30
0.0
 40
0
 41
0
  0
VERTEX
  8
0
 10
6.62358
 20
8.95514
 30
0.0
 40
0
 41
0
  0
VERTEX
  8
0
 10
6.64908
 20
8.92686
 30
0.0
 40
0
 41
0
  0
VERTEX
  8
0
 10
6.67768
 20
8.88639
 30
0.0
 40
0
 41
0
  0
VERTEX
  8
0
 10
6.70628
 20
8.8316
 30
0.0
 40
0
 41
0
  0
VERTEX
  8
0
 10
6.73003
 20
8.77317
 30
0.0
 40
0
 41
0
  0
VERTEX
  8
0
 10
6.74392
 20
8.72179
 30
0.0
 40
0
 41
0
  0
VERTEX
  8
0
 10
6.74756
 20
8.69347
 30
0.0
 40
0
 41
0
  0
VERTEX
  8
0
 10
6.74789
 20
8.66613
 30
0.0
 40
0
 41
0
  0
VERTEX
  8
0
 10
6.74442
 20
8.63167
 30
0.0
 40
0
 41
0
  0
VERTEX
  8
0
 10
6.73682
 20
8.58208
 30
0.0
 40
0
 41
0
  0
VERTEX
  8
0
 10
6.72467
 20
8.51454
 30
0.0
 40
0
 41
0
  0
VERTEX
  8
0
 10
6.71332
 20
8.46696
 30
0.0
 40
0
 41
0
  0
VERTEX
  8
0
 10
6.70101
 20
8.43375
 30
0.0
 40
0
 41
0
  0
VERTEX
  8
0
 10
6.68614
 20
8.40912
 30
0.0
 40
0
 41
0
  0
VERTEX
  8
0
 10
6.66764
 20
8.38183
 30
0.0
 40
0
 41
0
  0
VERTEX
  8
0
 10
6.64583
 20
8.34614
 30
0.0
 40
0
 41
0
  0
VERTEX
  8
0
 10
6.62158
 20
8.30447
 30
0.0
 40
0
 41
0
  0
VERTEX
  8
0
 10
6.64615
 20
8.317
 30
0.0
 40
0
 41
0
  0
VERTEX
  8
0
 10
6.66726
 20
8.32656
 30
0.0
 40
0
 41
0
  0
VERTEX
  8
0
 10
6.6799
 20
8.32764
 30
0.0
 40
0
 41
0
  0
VERTEX
  8
0
 10
6.6869
 20
8.31928
 30
0.0
 40
0
 41
0
  0
VERTEX
  8
0
 10
6.69103
 20
8.30035
 30
0.0
 40
0
 41
0
  0
VERTEX
  8
0
 10
6.69331
 20
8.27229
 30
0.0
 40
0
 41
0
  0
VERTEX
  8
0
 10
6.68924
 20
8.25043
 30
0.0
 40
0
 41
0
  0
VERTEX
  8
0
 10
6.67671
 20
8.22944
 30
0.0
 40
0
 41
0
  0
VERTEX
  8
0
 10
6.65381
 20
8.20404
 30
0.0
 40
0
 41
0
  0
VERTEX
  8
0
 10
6.6281
 20
8.17546
 30
0.0
 40
0
 41
0
  0
VERTEX
  8
0
 10
6.60813
 20
8.14632
 30
0.0
 40
0
 41
0
  0
VERTEX
  8
0
 10
6.59125
 20
8.11193
 30
0.0
 40
0
 41
0
  0
VERTEX
  8
0
 10
6.57471
 20
8.06754
 30
0.0
 40
0
 41
0
  0
VERTEX
  8
0
 10
6.56386
 20
8.03819
 30
0.0
 40
0
 41
0
  0
VERTEX
  8
0
 10
6.55057
 20
8.00868
 30
0.0
 40
0
 41
0
  0
VERTEX
  8
0
 10
6.53065
 20
7.97092
 30
0.0
 40
0
 41
0
  0
VERTEX
  8
0
 10
6.50022
 20
7.91667
 30
0.0
 40
0
 41
0
  0
VERTEX
  8
0
 10
6.48649
 20
7.88189
 30
0.0
 40
0
 41
0
  0
VERTEX
  8
0
 10
6.47678
 20
7.83919
 30
0.0
 40
0
 41
0
  0
VERTEX
  8
0
 10
6.47336
 20
7.803
 30
0.0
 40
0
 41
0
  0
VERTEX
  8
0
 10
6.47879
 20
7.7876
 30
0.0
 40
0
 41
0
  0
VERTEX
  8
0
 10
6.52561
 20
7.78217
 30
0.0
 40
0
 41
0
  0
VERTEX
  8
0
 10
6.6129
 20
7.76828
 30
0.0
 40
0
 41
0
  0
VERTEX
  8
0
 10
6.72831
 20
7.74815
 30
0.0
 40
0
 41
0
  0
VERTEX
  8
0
 10
6.85932
 20
7.72418
 30
0.0
 40
0
 41
0
  0
VERTEX
  8
0
 10
6.99354
 20
7.69863
 30
0.0
 40
0
 41
0
  0
VERTEX
  8
0
 10
7.11865
 20
7.67383
 30
0.0
 40
0
 41
0
  0
VERTEX
  8
0
 10
7.22222
 20
7.65213
 30
0.0
 40
0
 41
0
  0
VERTEX
  8
0
 10
7.29183
 20
7.63579
 30
0.0
 40
0
 41
0
  0
VERTEX
  8
0
 10
7.37056
 20
7.61475
 30
0.0
 40
0
 41
0
  0
VERTEX
  8
0
 10
7.42443
 20
7.59972
 30
0.0
 40
0
 41
0
  0
VERTEX
  8
0
 10
7.46431
 20
7.58751
 30
0.0
 40
0
 41
0
  0
VERTEX
  8
0
 10
7.50097
 20
7.57497
 30
0.0
 40
0
 41
0
  0
VERTEX
  8
0
 10
7.65717
 20
7.51389
 30
0.0
 40
0
 41
0
  0
VERTEX
  8
0
 10
7.77322
 20
7.45225
 30
0.0
 40
0
 41
0
  0
VERTEX
  8
0
 10
7.86578
 20
7.37933
 30
0.0
 40
0
 41
0
  0
VERTEX
  8
0
 10
7.9515
 20
7.2845
 30
0.0
 40
0
 41
0
  0
VERTEX
  8
0
 10
8.04047
 20
7.16971
 30
0.0
 40
0
 41
0
  0
VERTEX
  8
0
 10
8.10167
 20
7.07932
 30
0.0
 40
0
 41
0
  0
VERTEX
  8
0
 10
8.14464
 20
6.99739
 30
0.0
 40
0
 41
0
  0
VERTEX
  8
0
 10
8.1791
 20
6.90793
 30
0.0
 40
0
 41
0
  0
VERTEX
  8
0
 10
8.18913
 20
6.8769
 30
0.0
 40
0
 41
0
  0
VERTEX
  8
0
 10
8.19336
 20
6.8559
 30
0.0
 40
0
 41
0
  0
VERTEX
  8
0
 10
8.19243
 20
6.83675
 30
0.0
 40
0
 41
0
  0
VERTEX
  8
0
 10
8.18713
 20
6.81114
 30
0.0
 40
0
 41
0
  0
VERTEX
  8
0
 10
8.16992
 20
6.75222
 30
0.0
 40
0
 41
0
  0
VERTEX
  8
0
 10
8.14193
 20
6.70611
 30
0.0
 40
0
 41
0
  0
VERTEX
  8
0
 10
8.08931
 20
6.65642
 30
0.0
 40
0
 41
0
  0
VERTEX
  8
0
 10
7.99815
 20
6.58653
 30
0.0
 40
0
 41
0
  0
VERTEX
  8
0
 10
7.94949
 20
6.54775
 30
0.0
 40
0
 41
0
  0
VERTEX
  8
0
 10
7.90483
 20
6.50803
 30
0.0
 40
0
 41
0
  0
VERTEX
  8
0
 10
7.852
 20
6.45763
 30
0.0
 40
0
 41
0
  0
VERTEX
  8
0
 10
7.81233
 20
6.42068
 30
0.0
 40
0
 41
0
  0
VERTEX
  8
0
 10
7.78733
 20
6.39871
 30
0.0
 40
0
 41
0
  0
VERTEX
  8
0
 10
7.77869
 20
6.39312
 30
0.0
 40
0
 41
0
  0
VERTEX
  8
0
 10
7.77012
 20
6.39031
 30
0.0
 40
0
 41
0
  0
VERTEX
  8
0
 10
7.7595
 20
6.38314
 30
0.0
 40
0
 41
0
  0
VERTEX
  8
0
 10
7.73693
 20
6.36887
 30
0.0
 40
0
 41
0
  0
VERTEX
  8
0
 10
7.70572
 20
6.3495
 30
0.0
 40
0
 41
0
  0
VERTEX
  8
0
 10
7.66928
 20
6.32715
 30
0.0
 40
0
 41
0
  0
VERTEX
  8
0
 10
7.60661
 20
6.28792
 30
0.0
 40
0
 41
0
  0
VERTEX
  8
0
 10
7.55274
 20
6.25065
 30
0.0
 40
0
 41
0
  0
VERTEX
  8
0
 10
7.49843
 20
6.20888
 30
0.0
 40
0
 41
0
  0
VERTEX
  8
0
 10
7.43468
 20
6.15576
 30
0.0
 40
0
 41
0
  0
VERTEX
  8
0
 10
7.3265
 20
6.07693
 30
0.0
 40
0
 41
0
  0
VERTEX
  8
0
 10
7.1581
 20
5.97336
 30
0.0
 40
0
 41
0
  0
VERTEX
  8
0
 10
7.12793
 20
5.95562
 30
0.0
 40
0
 41
0
  0
VERTEX
  8
0
 10
7.09651
 20
5.93685
 30
0.0
 40
0
 41
0
  0
VERTEX
  8
0
 10
7.0676
 20
5.91932
 30
0.0
 40
0
 41
0
  0
VERTEX
  8
0
 10
7.04492
 20
5.90522
 30
0.0
 40
0
 41
0
  0
VERTEX
  8
0
 10
6.99631
 20
5.87864
 30
0.0
 40
0
 41
0
  0
VERTEX
  8
0
 10
6.94206
 20
5.85417
 30
0.0
 40
0
 41
0
  0
VERTEX
  8
0
 10
6.89199
 20
5.83062
 30
0.0
 40
0
 41
0
  0
VERTEX
  8
0
 10
6.85633
 20
5.80572
 30
0.0
 40
0
 41
0
  0
VERTEX
  8
0
 10
6.81939
 20
5.77354
 30
0.0
 40
0
 41
0
  0
VERTEX
  8
0
 10
6.78885
 20
5.75239
 30
0.0
 40
0
 41
0
  0
VERTEX
  8
0
 10
6.76204
 20
5.74083
 30
0.0
 40
0
 41
0
  0
VERTEX
  8
0
 10
6.73633
 20
5.73731
 30
0.0
 40
0
 41
0
  0
VERTEX
  8
0
 10
6.71761
 20
5.73568
 30
0.0
 40
0
 41
0
  0
VERTEX
  8
0
 10
6.69618
 20
5.73031
 30
0.0
 40
0
 41
0
  0
VERTEX
  8
0
 10
6.66976
 20
5.72054
 30
0.0
 40
0
 41
0
  0
VERTEX
  8
0
 10
6.63618
 20
5.70557
 30
0.0
 40
0
 41
0
  0
VERTEX
  8
0
 10
6.60628
 20
5.69194
 30
0.0
 40
0
 41
0
  0
VERTEX
  8
0
 10
6.57514
 20
5.67822
 30
0.0
 40
0
 41
0
  0
VERTEX
  8
0
 10
6.54639
 20
5.66607
 30
0.0
 40
0
 41
0
  0
VERTEX
  8
0
 10
6.52376
 20
5.65701
 30
0.0
 40
0
 41
0
  0
VERTEX
  8
0
 10
6.45839
 20
5.63178
 30
0.0
 40
0
 41
0
  0
VERTEX
  8
0
 10
6.40983
 20
5.61106
 30
0.0
 40
0
 41
0
  0
VERTEX
  8
0
 10
6.36838
 20
5.59039
 30
0.0
 40
0
 41
0
  0
VERTEX
  8
0
 10
6.32433
 20
5.56521
 30
0.0
 40
0
 41
0
  0
VERTEX
  8
0
 10
6.29731
 20
5.54953
 30
0.0
 40
0
 41
0
  0
VERTEX
  8
0
 10
6.27419
 20
5.53662
 30
0.0
 40
0
 41
0
  0
VERTEX
  8
0
 10
6.25743
 20
5.52794
 30
0.0
 40
0
 41
0
  0
VERTEX
  8
0
 10
6.24957
 20
5.52474
 30
0.0
 40
0
 41
0
  0
VERTEX
  8
0
 10
6.24169
 20
5.53093
 30
0.0
 40
0
 41
0
  0
VERTEX
  8
0
 10
6.2321
 20
5.54574
 30
0.0
 40
0
 41
0
  0
SEQEND
 8
0
  0
POLYLINE
  8
0
 62
     0
 66
     1
 10
0
 20
0
 30
0.0
 70
     1
 40
0
 41
0
  0
VERTEX
  8
0
 10
6.86529
 20
7.6881
 30
0.0
 40
0
 41
0
  0
VERTEX
  8
0
 10
6.84679
 20
7.69174
 30
0.0
 40
0
 41
0
  0
VERTEX
  8
0
 10
6.83231
 20
7.68989
 30
0.0
 40
0
 41
0
  0
VERTEX
  8
0
 10
6.82867
 20
7.68528
 30
0.0
 40
0
 41
0
  0
VERTEX
  8
0
 10
6.84576
 20
7.68164
 30
0.0
 40
0
 41
0
  0
VERTEX
  8
0
 10
6.86529
 20
7.6881
 30
0.0
 40
0
 41
0
  0
SEQEND
 8
0
  0
POLYLINE
  8
0
 62
     0
 66
     1
 10
0
 20
0
 30
0.0
 70
     1
 40
0
 41
0
  0
VERTEX
  8
0
 10
5.6595
 20
6.37586
 30
0.0
 40
0
 41
0
  0
VERTEX
  8
0
 10
5.65457
 20
6.41249
 30
0.0
 40
0
 41
0
  0
VERTEX
  8
0
 10
5.65474
 20
6.45122
 30
0.0
 40
0
 41
0
  0
VERTEX
  8
0
 10
5.65511
 20
6.48133
 30
0.0
 40
0
 41
0
  0
VERTEX
  8
0
 10
5.64751
 20
6.50439
 30
0.0
 40
0
 41
0
  0
VERTEX
  8
0
 10
5.62825
 20
6.52653
 30
0.0
 40
0
 41
0
  0
VERTEX
  8
0
 10
5.59375
 20
6.55393
 30
0.0
 40
0
 41
0
  0
VERTEX
  8
0
 10
5.565
 20
6.57894
 30
0.0
 40
0
 41
0
  0
VERTEX
  8
0
 10
5.55681
 20
6.59814
 30
0.0
 40
0
 41
0
  0
VERTEX
  8
0
 10
5.55849
 20
6.61014
 30
0.0
 40
0
 41
0
  0
VERTEX
  8
0
 10
5.5625
 20
6.61507
 30
0.0
 40
0
 41
0
  0
VERTEX
  8
0
 10
5.57579
 20
6.62125
 30
0.0
 40
0
 41
0
  0
VERTEX
  8
0
 10
5.59983
 20
6.63601
 30
0.0
 40
0
 41
0
  0
VERTEX
  8
0
 10
5.61806
 20
6.64763
 30
0.0
 40
0
 41
0
  0
VERTEX
  8
0
 10
5.62993
 20
6.65261
 30
0.0
 40
0
 41
0
  0
VERTEX
  8
0
 10
5.63986
 20
6.65192
 30
0.0
 40
0
 41
0
  0
VERTEX
  8
0
 10
5.65224
 20
6.64626
 30
0.0
 40
0
 41
0
  0
VERTEX
  8
0
 10
5.66737
 20
6.63639
 30
0.0
 40
0
 41
0
  0
VERTEX
  8
0
 10
5.67942
 20
6.62218
 30
0.0
 40
0
 41
0
  0
VERTEX
  8
0
 10
5.69097
 20
6.59939
 30
0.0
 40
0
 41
0
  0
VERTEX
  8
0
 10
5.70486
 20
6.56364
 30
0.0
 40
0
 41
0
  0
VERTEX
  8
0
 10
5.71929
 20
6.52419
 30
0.0
 40
0
 41
0
  0
VERTEX
  8
0
 10
5.73042
 20
6.49485
 30
0.0
 40
0
 41
0
  0
VERTEX
  8
0
 10
5.73931
 20
6.47439
 30
0.0
 40
0
 41
0
  0
VERTEX
  8
0
 10
5.74707
 20
6.46137
 30
0.0
 40
0
 41
0
  0
VERTEX
  8
0
 10
5.75461
 20
6.45443
 30
0.0
 40
0
 41
0
  0
VERTEX
  8
0
 10
5.76303
 20
6.45225
 30
0.0
 40
0
 41
0
  0
VERTEX
  8
0
 10
5.77339
 20
6.45344
 30
0.0
 40
0
 41
0
  0
VERTEX
  8
0
 10
5.78674
 20
6.45671
 30
0.0
 40
0
 41
0
  0
VERTEX
  8
0
 10
5.81153
 20
6.46083
 30
0.0
 40
0
 41
0
  0
VERTEX
  8
0
 10
5.82519
 20
6.45915
 30
0.0
 40
0
 41
0
  0
VERTEX
  8
0
 10
5.82422
 20
6.45324
 30
0.0
 40
0
 41
0
  0
VERTEX
  8
0
 10
5.81651
 20
6.44217
 30
0.0
 40
0
 41
0
  0
VERTEX
  8
0
 10
5.80371
 20
6.42763
 30
0.0
 40
0
 41
0
  0
VERTEX
  8
0
 10
5.78738
 20
6.41103
 30
0.0
 40
0
 41
0
  0
VERTEX
  8
0
 10
5.76904
 20
6.39393
 30
0.0
 40
0
 41
0
  0
VERTEX
  8
0
 10
5.75032
 20
6.37793
 30
0.0
 40
0
 41
0
  0
VERTEX
  8
0
 10
5.73281
 20
6.36447
 30
0.0
 40
0
 41
0
  0
VERTEX
  8
0
 10
5.7181
 20
6.35514
 30
0.0
 40
0
 41
0
  0
VERTEX
  8
0
 10
5.69265
 20
6.34347
 30
0.0
 40
0
 41
0
  0
VERTEX
  8
0
 10
5.67671
 20
6.34224
 30
0.0
 40
0
 41
0
  0
VERTEX
  8
0
 10
5.66683
 20
6.3526
 30
0.0
 40
0
 41
0
  0
VERTEX
  8
0
 10
5.6595
 20
6.37586
 30
0.0
 40
0
 41
0
  0
SEQEND
 8
0
  0
POLYLINE
  8
0
 62
     0
 66
     1
 10
0
 20
0
 30
0.0
 70
     1
 40
0
 41
0
  0
VERTEX
  8
0
 10
5.34337
 20
6.35792
 30
0.0
 40
0
 41
0
  0
VERTEX
  8
0
 10
5.34169
 20
6.36762
 30
0.0
 40
0
 41
0
  0
VERTEX
  8
0
 10
5.33567
 20
6.37907
 30
0.0
 40
0
 41
0
  0
VERTEX
  8
0
 10
5.33014
 20
6.40543
 30
0.0
 40
0
 41
0
  0
VERTEX
  8
0
 10
5.33826
 20
6.44547
 30
0.0
 40
0
 41
0
  0
VERTEX
  8
0
 10
5.35482
 20
6.48296
 30
0.0
 40
0
 41
0
  0
VERTEX
  8
0
 10
5.37468
 20
6.50157
 30
0.0
 40
0
 41
0
  0
VERTEX
  8
0
 10
5.41639
 20
6.507
 30
0.0
 40
0
 41
0
  0
VERTEX
  8
0
 10
5.4751
 20
6.51221
 30
0.0
 40
0
 41
0
  0
VERTEX
  8
0
 10
5.53168
 20
6.51574
 30
0.0
 40
0
 41
0
  0
VERTEX
  8
0
 10
5.56711
 20
6.51611
 30
0.0
 40
0
 41
0
  0
VERTEX
  8
0
 10
5.58882
 20
6.51421
 30
0.0
 40
0
 41
0
  0
VERTEX
  8
0
 10
5.60254
 20
6.51297
 30
0.0
 40
0
 41
0
  0
VERTEX
  8
0
 10
5.60975
 20
6.50276
 30
0.0
 40
0
 41
0
  0
VERTEX
  8
0
 10
5.61719
 20
6.48047
 30
0.0
 40
0
 41
0
  0
VERTEX
  8
0
 10
5.62185
 20
6.45714
 30
0.0
 40
0
 41
0
  0
VERTEX
  8
0
 10
5.62088
 20
6.44374
 30
0.0
 40
0
 41
0
  0
VERTEX
  8
0
 10
5.60499
 20
6.44086
 30
0.0
 40
0
 41
0
  0
VERTEX
  8
0
 10
5.57579
 20
6.442
 30
0.0
 40
0
 41
0
  0
VERTEX
  8
0
 10
5.54525
 20
6.44613
 30
0.0
 40
0
 41
0
  0
VERTEX
  8
0
 10
5.52533
 20
6.45215
 30
0.0
 40
0
 41
0
  0
VERTEX
  8
0
 10
5.51124
 20
6.45361
 30
0.0
 40
0
 41
0
  0
VERTEX
  8
0
 10
5.48969
 20
6.44894
 30
0.0
 40
0
 41
0
  0
VERTEX
  8
0
 10
5.46712
 20
6.44011
 30
0.0
 40
0
 41
0
  0
VERTEX
  8
0
 10
5.44987
 20
6.42904
 30
0.0
 40
0
 41
0
  0
VERTEX
  8
0
 10
5.43696
 20
6.41422
 30
0.0
 40
0
 41
0
  0
VERTEX
  8
0
 10
5.42617
 20
6.39714
 30
0.0
 40
0
 41
0
  0
VERTEX
  8
0
 10
5.41411
 20
6.37603
 30
0.0
 40
0
 41
0
  0
VERTEX
  8
0
 10
5.40229
 20
6.36296
 30
0.0
 40
0
 41
0
  0
VERTEX
  8
0
 10
5.38846
 20
6.35633
 30
0.0
 40
0
 41
0
  0
VERTEX
  8
0
 10
5.37061
 20
6.35449
 30
0.0
 40
0
 41
0
  0
VERTEX
  8
0
 10
5.35172
 20
6.35553
 30
0.0
 40
0
 41
0
  0
VERTEX
  8
0
 10
5.34337
 20
6.35792
 30
0.0
 40
0
 41
0
  0
SEQEND
 8
0
  0
POLYLINE
  8
0
 62
     0
 66
     1
 10
0
 20
0
 30
0.0
 70
     1
 40
0
 41
0
  0
VERTEX
  8
0
 10
3.53618
 20
6.43951
 30
0.0
 40
0
 41
0
  0
VERTEX
  8
0
 10
3.50185
 20
6.44889
 30
0.0
 40
0
 41
0
  0
VERTEX
  8
0
 10
3.47874
 20
6.46078
 30
0.0
 40
0
 41
0
  0
VERTEX
  8
0
 10
3.44933
 20
6.50993
 30
0.0
 40
0
 41
0
  0
VERTEX
  8
0
 10
3.43479
 20
6.59164
 30
0.0
 40
0
 41
0
  0
VERTEX
  8
0
 10
3.42936
 20
6.64187
 30
0.0
 40
0
 41
0
  0
VERTEX
  8
0
 10
3.42279
 20
6.67681
 30
0.0
 40
0
 41
0
  0
VERTEX
  8
0
 10
3.40494
 20
6.72206
 30
0.0
 40
0
 41
0
  0
VERTEX
  8
0
 10
3.37961
 20
6.77013
 30
0.0
 40
0
 41
0
  0
VERTEX
  8
0
 10
3.34978
 20
6.81597
 30
0.0
 40
0
 41
0
  0
VERTEX
  8
0
 10
3.31847
 20
6.85439
 30
0.0
 40
0
 41
0
  0
VERTEX
  8
0
 10
3.2845
 20
6.89188
 30
0.0
 40
0
 41
0
  0
VERTEX
  8
0
 10
3.26481
 20
6.919
 30
0.0
 40
0
 41
0
  0
VERTEX
  8
0
 10
3.25478
 20
6.94342
 30
0.0
 40
0
 41
0
  0
VERTEX
  8
0
 10
3.25011
 20
6.97276
 30
0.0
 40
0
 41
0
  0
VERTEX
  8
0
 10
3.24061
 20
7.04428
 30
0.0
 40
0
 41
0
  0
VERTEX
  8
0
 10
3.23118
 20
7.07167
 30
0.0
 40
0
 41
0
  0
VERTEX
  8
0
 10
3.22694
 20
7.08192
 30
0.0
 40
0
 41
0
  0
VERTEX
  8
0
 10
3.22521
 20
7.1014
 30
0.0
 40
0
 41
0
  0
VERTEX
  8
0
 10
3.23062
 20
7.12831
 30
0.0
 40
0
 41
0
  0
VERTEX
  8
0
 10
3.25146
 20
7.15761
 30
0.0
 40
0
 41
0
  0
VERTEX
  8
0
 10
3.27349
 20
7.18494
 30
0.0
 40
0
 41
0
  0
VERTEX
  8
0
 10
3.28971
 20
7.20839
 30
0.0
 40
0
 41
0
  0
VERTEX
  8
0
 10
3.31401
 20
7.23736
 30
0.0
 40
0
 41
0
  0
VERTEX
  8
0
 10
3.34836
 20
7.25971
 30
0.0
 40
0
 41
0
  0
VERTEX
  8
0
 10
3.39019
 20
7.27425
 30
0.0
 40
0
 41
0
  0
VERTEX
  8
0
 10
3.43701
 20
7.27974
 30
0.0
 40
0
 41
0
  0
VERTEX
  8
0
 10
3.47597
 20
7.28342
 30
0.0
 40
0
 41
0
  0
VERTEX
  8
0
 10
3.50375
 20
7.29449
 30
0.0
 40
0
 41
0
  0
VERTEX
  8
0
 10
3.52669
 20
7.30865
 30
0.0
 40
0
 41
0
  0
VERTEX
  8
0
 10
3.58686
 20
7.29368
 30
0.0
 40
0
 41
0
  0
VERTEX
  8
0
 10
3.65147
 20
7.27567
 30
0.0
 40
0
 41
0
  0
VERTEX
  8
0
 10
3.70714
 20
7.25635
 30
0.0
 40
0
 41
0
  0
VERTEX
  8
0
 10
3.75017
 20
7.23714
 30
0.0
 40
0
 41
0
  0
VERTEX
  8
0
 10
3.77696
 20
7.21946
 30
0.0
 40
0
 41
0
  0
VERTEX
  8
0
 10
3.79975
 20
7.20085
 30
0.0
 40
0
 41
0
  0
VERTEX
  8
0
 10
3.82536
 20
7.18354
 30
0.0
 40
0
 41
0
  0
VERTEX
  8
0
 10
3.85476
 20
7.16124
 30
0.0
 40
0
 41
0
  0
VERTEX
  8
0
 10
3.88726
 20
7.12993
 30
0.0
 40
0
 41
0
  0
VERTEX
  8
0
 10
3.91525
 20
7.0976
 30
0.0
 40
0
 41
0
  0
VERTEX
  8
0
 10
3.93121
 20
7.0721
 30
0.0
 40
0
 41
0
  0
VERTEX
  8
0
 10
3.93625
 20
7.05176
 30
0.0
 40
0
 41
0
  0
VERTEX
  8
0
 10
3.93842
 20
7.02951
 30
0.0
 40
0
 41
0
  0
VERTEX
  8
0
 10
3.93533
 20
7.00988
 30
0.0
 40
0
 41
0
  0
VERTEX
  8
0
 10
3.91954
 20
7.00603
 30
0.0
 40
0
 41
0
  0
VERTEX
  8
0
 10
3.89665
 20
7.01167
 30
0.0
 40
0
 41
0
  0
VERTEX
  8
0
 10
3.86843
 20
7.02843
 30
0.0
 40
0
 41
0
  0
VERTEX
  8
0
 10
3.83475
 20
7.05647
 30
0.0
 40
0
 41
0
  0
VERTEX
  8
0
 10
3.79557
 20
7.09581
 30
0.0
 40
0
 41
0
  0
VERTEX
  8
0
 10
3.7666
 20
7.12565
 30
0.0
 40
0
 41
0
  0
VERTEX
  8
0
 10
3.74197
 20
7.14556
 30
0.0
 40
0
 41
0
  0
VERTEX
  8
0
 10
3.71137
 20
7.16249
 30
0.0
 40
0
 41
0
  0
VERTEX
  8
0
 10
3.6645
 20
7.18326
 30
0.0
 40
0
 41
0
  0
VERTEX
  8
0
 10
3.63124
 20
7.197
 30
0.0
 40
0
 41
0
  0
VERTEX
  8
0
 10
3.60167
 20
7.20817
 30
0.0
 40
0
 41
0
  0
VERTEX
  8
0
 10
3.579
 20
7.21571
 30
0.0
 40
0
 41
0
  0
VERTEX
  8
0
 10
3.56651
 20
7.21843
 30
0.0
 40
0
 41
0
  0
VERTEX
  8
0
 10
3.53386
 20
7.21419
 30
0.0
 40
0
 41
0
  0
VERTEX
  8
0
 10
3.48475
 20
7.20426
 30
0.0
 40
0
 41
0
  0
VERTEX
  8
0
 10
3.43701
 20
7.19265
 30
0.0
 40
0
 41
0
  0
VERTEX
  8
0
 10
3.40875
 20
7.18338
 30
0.0
 40
0
 41
0
  0
VERTEX
  8
0
 10
3.39421
 20
7.1729
 30
0.0
 40
0
 41
0
  0
VERTEX
  8
0
 10
3.38086
 20
7.15912
 30
0.0
 40
0
 41
0
  0
VERTEX
  8
0
 10
3.36942
 20
7.14529
 30
0.0
 40
0
 41
0
  0
VERTEX
  8
0
 10
3.35986
 20
7.1345
 30
0.0
 40
0
 41
0
  0
VERTEX
  8
0
 10
3.34375
 20
7.11572
 30
0.0
 40
0
 41
0
  0
VERTEX
  8
0
 10
3.33485
 20
7.09739
 30
0.0
 40
0
 41
0
  0
VERTEX
  8
0
 10
3.33176
 20
7.07428
 30
0.0
 40
0
 41
0
  0
VERTEX
  8
0
 10
3.33296
 20
7.04129
 30
0.0
 40
0
 41
0
  0
VERTEX
  8
0
 10
3.33556
 20
7.01237
 30
0.0
 40
0
 41
0
  0
VERTEX
  8
0
 10
3.33963
 20
6.99338
 30
0.0
 40
0
 41
0
  0
VERTEX
  8
0
 10
3.34694
 20
6.97928
 30
0.0
 40
0
 41
0
  0
VERTEX
  8
0
 10
3.35926
 20
6.96485
 30
0.0
 40
0
 41
0
  0
VERTEX
  8
0
 10
3.38954
 20
6.92458
 30
0.0
 40
0
 41
0
  0
VERTEX
  8
0
 10
3.42312
 20
6.86762
 30
0.0
 40
0
 41
0
  0
VERTEX
  8
0
 10
3.45432
 20
6.80442
 30
0.0
 40
0
 41
0
  0
VERTEX
  8
0
 10
3.47749
 20
6.74539
 30
0.0
 40
0
 41
0
  0
VERTEX
  8
0
 10
3.48742
 20
6.7136
 30
0.0
 40
0
 41
0
  0
VERTEX
  8
0
 10
3.49881
 20
6.67518
 30
0.0
 40
0
 41
0
  0
VERTEX
  8
0
 10
3.51036
 20
6.63504
 30
0.0
 40
0
 41
0
  0
VERTEX
  8
0
 10
3.52061
 20
6.59793
 30
0.0
 40
0
 41
0
  0
VERTEX
  8
0
 10
3.53771
 20
6.53868
 30
0.0
 40
0
 41
0
  0
VERTEX
  8
0
 10
3.553
 20
6.49713
 30
0.0
 40
0
 41
0
  0
VERTEX
  8
0
 10
3.56863
 20
6.46837
 30
0.0
 40
0
 41
0
  0
VERTEX
  8
0
 10
3.58692
 20
6.44738
 30
0.0
 40
0
 41
0
  0
VERTEX
  8
0
 10
3.59804
 20
6.43587
 30
0.0
 40
0
 41
0
  0
VERTEX
  8
0
 10
3.59608
 20
6.4311
 30
0.0
 40
0
 41
0
  0
VERTEX
  8
0
 10
3.57682
 20
6.43257
 30
0.0
 40
0
 41
0
  0
VERTEX
  8
0
 10
3.53618
 20
6.43951
 30
0.0
 40
0
 41
0
  0
SEQEND
 8
0
  0
POLYLINE
  8
0
 62
     0
 66
     1
 10
0
 20
0
 30
0.0
 70
     1
 40
0
 41
0
  0
VERTEX
  8
0
 10
5.09804
 20
6.45942
 30
0.0
 40
0
 41
0
  0
VERTEX
  8
0
 10
5.09104
 20
6.47754
 30
0.0
 40
0
 41
0
  0
VERTEX
  8
0
 10
5.10129
 20
6.50635
 30
0.0
 40
0
 41
0
  0
VERTEX
  8
0
 10
5.1096
 20
6.52468
 30
0.0
 40
0
 41
0
  0
VERTEX
  8
0
 10
5.11447
 20
6.53939
 30
0.0
 40
0
 41
0
  0
VERTEX
  8
0
 10
5.12706
 20
6.56006
 30
0.0
 40
0
 41
0
  0
VERTEX
  8
0
 10
5.15429
 20
6.59136
 30
0.0
 40
0
 41
0
  0
VERTEX
  8
0
 10
5.18733
 20
6.62392
 30
0.0
 40
0
 41
0
  0
VERTEX
  8
0
 10
5.21739
 20
6.64839
 30
0.0
 40
0
 41
0
  0
VERTEX
  8
0
 10
5.27001
 20
6.67844
 30
0.0
 40
0
 41
0
  0
VERTEX
  8
0
 10
5.33029
 20
6.70546
 30
0.0
 40
0
 41
0
  0
VERTEX
  8
0
 10
5.36128
 20
6.71403
 30
0.0
 40
0
 41
0
  0
VERTEX
  8
0
 10
5.41151
 20
6.72526
 30
0.0
 40
0
 41
0
  0
VERTEX
  8
0
 10
5.47928
 20
6.74067
 30
0.0
 40
0
 41
0
  0
VERTEX
  8
0
 10
5.53461
 20
6.75667
 30
0.0
 40
0
 41
0
  0
VERTEX
  8
0
 10
5.58057
 20
6.77425
 30
0.0
 40
0
 41
0
  0
VERTEX
  8
0
 10
5.62028
 20
6.79443
 30
0.0
 40
0
 41
0
  0
VERTEX
  8
0
 10
5.65294
 20
6.81461
 30
0.0
 40
0
 41
0
  0
VERTEX
  8
0
 10
5.66656
 20
6.82508
 30
0.0
 40
0
 41
0
  0
VERTEX
  8
0
 10
5.66781
 20
6.83713
 30
0.0
 40
0
 41
0
  0
VERTEX
  8
0
 10
5.67117
 20
6.85818
 30
0.0
 40
0
 41
0
  0
VERTEX
  8
0
 10
5.67606
 20
6.88504
 30
0.0
 40
0
 41
0
  0
VERTEX
  8
0
 10
5.68175
 20
6.91456
 30
0.0
 40
0
 41
0
  0
VERTEX
  8
0
 10
5.68767
 20
6.94347
 30
0.0
 40
0
 41
0
  0
VERTEX
  8
0
 10
5.69314
 20
6.96853
 30
0.0
 40
0
 41
0
  0
VERTEX
  8
0
 10
5.69749
 20
6.9866
 30
0.0
 40
0
 41
0
  0
VERTEX
  8
0
 10
5.70019
 20
6.99436
 30
0.0
 40
0
 41
0
  0
VERTEX
  8
0
 10
5.7091
 20
6.99701
 30
0.0
 40
0
 41
0
  0
VERTEX
  8
0
 10
5.72276
 20
6.99561
 30
0.0
 40
0
 41
0
  0
VERTEX
  8
0
 10
5.73562
 20
6.98665
 30
0.0
 40
0
 41
0
  0
VERTEX
  8
0
 10
5.74713
 20
6.96826
 30
0.0
 40
0
 41
0
  0
VERTEX
  8
0
 10
5.75672
 20
6.94293
 30
0.0
 40
0
 41
0
  0
VERTEX
  8
0
 10
5.764
 20
6.91325
 30
0.0
 40
0
 41
0
  0
VERTEX
  8
0
 10
5.76953
 20
6.85092
 30
0.0
 40
0
 41
0
  0
VERTEX
  8
0
 10
5.76676
 20
6.82335
 30
0.0
 40
0
 41
0
  0
VERTEX
  8
0
 10
5.75976
 20
6.8016
 30
0.0
 40
0
 41
0
  0
VERTEX
  8
0
 10
5.7341
 20
6.76893
 30
0.0
 40
0
 41
0
  0
VERTEX
  8
0
 10
5.69581
 20
6.74262
 30
0.0
 40
0
 41
0
  0
VERTEX
  8
0
 10
5.63574
 20
6.71869
 30
0.0
 40
0
 41
0
  0
VERTEX
  8
0
 10
5.53928
 20
6.68599
 30
0.0
 40
0
 41
0
  0
VERTEX
  8
0
 10
5.43278
 20
6.653
 30
0.0
 40
0
 41
0
  0
VERTEX
  8
0
 10
5.34272
 20
6.62825
 30
0.0
 40
0
 41
0
  0
VERTEX
  8
0
 10
5.31754
 20
6.61996
 30
0.0
 40
0
 41
0
  0
VERTEX
  8
0
 10
5.30246
 20
6.61089
 30
0.0
 40
0
 41
0
  0
VERTEX
  8
0
 10
5.28569
 20
6.60135
 30
0.0
 40
0
 41
0
  0
VERTEX
  8
0
 10
5.26926
 20
6.59239
 30
0.0
 40
0
 41
0
  0
VERTEX
  8
0
 10
5.24815
 20
6.57042
 30
0.0
 40
0
 41
0
  0
VERTEX
  8
0
 10
5.22835
 20
6.54281
 30
0.0
 40
0
 41
0
  0
VERTEX
  8
0
 10
5.21604
 20
6.51699
 30
0.0
 40
0
 41
0
  0
VERTEX
  8
0
 10
5.20628
 20
6.49408
 30
0.0
 40
0
 41
0
  0
VERTEX
  8
0
 10
5.19342
 20
6.48665
 30
0.0
 40
0
 41
0
  0
VERTEX
  8
0
 10
5.17258
 20
6.48101
 30
0.0
 40
0
 41
0
  0
VERTEX
  8
0
 10
5.14242
 20
6.46875
 30
0.0
 40
0
 41
0
  0
VERTEX
  8
0
 10
5.11225
 20
6.45747
 30
0.0
 40
0
 41
0
  0
VERTEX
  8
0
 10
5.09804
 20
6.45942
 30
0.0
 40
0
 41
0
  0
SEQEND
 8
0
  0
POLYLINE
  8
0
 62
     0
 66
     1
 10
0
 20
0
 30
0.0
 70
     1
 40
0
 41
0
  0
VERTEX
  8
0
 10
4.19
 20
6.46251
 30
0.0
 40
0
 41
0
  0
VERTEX
  8
0
 10
4.18647
 20
6.47592
 30
0.0
 40
0
 41
0
  0
VERTEX
  8
0
 10
4.18224
 20
6.50082
 30
0.0
 40
0
 41
0
  0
VERTEX
  8
0
 10
4.17437
 20
6.54025
 30
0.0
 40
0
 41
0
  0
VERTEX
  8
0
 10
4.16217
 20
6.57135
 30
0.0
 40
0
 41
0
  0
VERTEX
  8
0
 10
4.14253
 20
6.59961
 30
0.0
 40
0
 41
0
  0
VERTEX
  8
0
 10
4.11268
 20
6.63053
 30
0.0
 40
0
 41
0
  0
VERTEX
  8
0
 10
4.08681
 20
6.65565
 30
0.0
 40
0
 41
0
  0
VERTEX
  8
0
 10
4.07368
 20
6.67165
 30
0.0
 40
0
 41
0
  0
VERTEX
  8
0
 10
4.06967
 20
6.68435
 30
0.0
 40
0
 41
0
  0
VERTEX
  8
0
 10
4.07146
 20
6.69949
 30
0.0
 40
0
 41
0
  0
VERTEX
  8
0
 10
4.07769
 20
6.71707
 30
0.0
 40
0
 41
0
  0
VERTEX
  8
0
 10
4.08903
 20
6.72467
 30
0.0
 40
0
 41
0
  0
VERTEX
  8
0
 10
4.10688
 20
6.72244
 30
0.0
 40
0
 41
0
  0
VERTEX
  8
0
 10
4.13281
 20
6.71078
 30
0.0
 40
0
 41
0
  0
VERTEX
  8
0
 10
4.15901
 20
6.69672
 30
0.0
 40
0
 41
0
  0
VERTEX
  8
0
 10
4.15408
 20
6.71251
 30
0.0
 40
0
 41
0
  0
VERTEX
  8
0
 10
4.14785
 20
6.7276
 30
0.0
 40
0
 41
0
  0
VERTEX
  8
0
 10
4.13981
 20
6.74175
 30
0.0
 40
0
 41
0
  0
VERTEX
  8
0
 10
4.13217
 20
6.75581
 30
0.0
 40
0
 41
0
  0
VERTEX
  8
0
 10
4.13232
 20
6.76606
 30
0.0
 40
0
 41
0
  0
VERTEX
  8
0
 10
4.14094
 20
6.77393
 30
0.0
 40
0
 41
0
  0
VERTEX
  8
0
 10
4.15869
 20
6.78071
 30
0.0
 40
0
 41
0
  0
VERTEX
  8
0
 10
4.18701
 20
6.78922
 30
0.0
 40
0
 41
0
  0
VERTEX
  8
0
 10
4.21186
 20
6.76156
 30
0.0
 40
0
 41
0
  0
VERTEX
  8
0
 10
4.23812
 20
6.73042
 30
0.0
 40
0
 41
0
  0
VERTEX
  8
0
 10
4.26644
 20
6.69428
 30
0.0
 40
0
 41
0
  0
VERTEX
  8
0
 10
4.29617
 20
6.65468
 30
0.0
 40
0
 41
0
  0
VERTEX
  8
0
 10
4.31446
 20
6.67567
 30
0.0
 40
0
 41
0
  0
VERTEX
  8
0
 10
4.33957
 20
6.69553
 30
0.0
 40
0
 41
0
  0
VERTEX
  8
0
 10
4.37435
 20
6.71371
 30
0.0
 40
0
 41
0
  0
VERTEX
  8
0
 10
4.41596
 20
6.73079
 30
0.0
 40
0
 41
0
  0
VERTEX
  8
0
 10
4.45144
 20
6.71322
 30
0.0
 40
0
 41
0
  0
VERTEX
  8
0
 10
4.4936
 20
6.69835
 30
0.0
 40
0
 41
0
  0
VERTEX
  8
0
 10
4.5504
 20
6.68924
 30
0.0
 40
0
 41
0
  0
VERTEX
  8
0
 10
4.62011
 20
6.6754
 30
0.0
 40
0
 41
0
  0
VERTEX
  8
0
 10
4.64958
 20
6.65207
 30
0.0
 40
0
 41
0
  0
VERTEX
  8
0
 10
4.63737
 20
6.64063
 30
0.0
 40
0
 41
0
  0
VERTEX
  8
0
 10
4.60499
 20
6.62261
 30
0.0
 40
0
 41
0
  0
VERTEX
  8
0
 10
4.55811
 20
6.59993
 30
0.0
 40
0
 41
0
  0
VERTEX
  8
0
 10
4.52274
 20
6.61513
 30
0.0
 40
0
 41
0
  0
VERTEX
  8
0
 10
4.4854
 20
6.6256
 30
0.0
 40
0
 41
0
  0
VERTEX
  8
0
 10
4.44368
 20
6.6281
 30
0.0
 40
0
 41
0
  0
VERTEX
  8
0
 10
4.40192
 20
6.62272
 30
0.0
 40
0
 41
0
  0
VERTEX
  8
0
 10
4.36436
 20
6.60969
 30
0.0
 40
0
 41
0
  0
VERTEX
  8
0
 10
4.34131
 20
6.60037
 30
0.0
 40
0
 41
0
  0
VERTEX
  8
0
 10
4.32818
 20
6.59864
 30
0.0
 40
0
 41
0
  0
VERTEX
  8
0
 10
4.32172
 20
6.59511
 30
0.0
 40
0
 41
0
  0
VERTEX
  8
0
 10
4.31472
 20
6.58132
 30
0.0
 40
0
 41
0
  0
VERTEX
  8
0
 10
4.3049
 20
6.5644
 30
0.0
 40
0
 41
0
  0
VERTEX
  8
0
 10
4.28749
 20
6.56022
 30
0.0
 40
0
 41
0
  0
VERTEX
  8
0
 10
4.27632
 20
6.55957
 30
0.0
 40
0
 41
0
  0
VERTEX
  8
0
 10
4.27035
 20
6.55583
 30
0.0
 40
0
 41
0
  0
VERTEX
  8
0
 10
4.26796
 20
6.5465
 30
0.0
 40
0
 41
0
  0
VERTEX
  8
0
 10
4.26758
 20
6.52892
 30
0.0
 40
0
 41
0
  0
VERTEX
  8
0
 10
4.26568
 20
6.50256
 30
0.0
 40
0
 41
0
  0
VERTEX
  8
0
 10
4.25933
 20
6.48438
 30
0.0
 40
0
 41
0
  0
VERTEX
  8
0
 10
4.24718
 20
6.47239
 30
0.0
 40
0
 41
0
  0
VERTEX
  8
0
 10
4.22808
 20
6.46457
 30
0.0
 40
0
 41
0
  0
VERTEX
  8
0
 10
4.19894
 20
6.45785
 30
0.0
 40
0
 41
0
  0
VERTEX
  8
0
 10
4.19
 20
6.46251
 30
0.0
 40
0
 41
0
  0
SEQEND
 8
0
  0
POLYLINE
  8
0
 62
     0
 66
     1
 10
0
 20
0
 30
0.0
 70
     1
 40
0
 41
0
  0
VERTEX
  8
0
 10
3.34694
 20
6.52354
 30
0.0
 40
0
 41
0
  0
VERTEX
  8
0
 10
3.32075
 20
6.55078
 30
0.0
 40
0
 41
0
  0
VERTEX
  8
0
 10
3.29329
 20
6.59819
 30
0.0
 40
0
 41
0
  0
VERTEX
  8
0
 10
3.25933
 20
6.65711
 30
0.0
 40
0
 41
0
  0
VERTEX
  8
0
 10
3.22412
 20
6.69581
 30
0.0
 40
0
 41
0
  0
VERTEX
  8
0
 10
3.18235
 20
6.71847
 30
0.0
 40
0
 41
0
  0
VERTEX
  8
0
 10
3.12875
 20
6.72939
 30
0.0
 40
0
 41
0
  0
VERTEX
  8
0
 10
3.10101
 20
6.73367
 30
0.0
 40
0
 41
0
  0
VERTEX
  8
0
 10
3.09283
 20
6.73785
 30
0.0
 40
0
 41
0
  0
VERTEX
  8
0
 10
3.09771
 20
6.74707
 30
0.0
 40
0
 41
0
  0
VERTEX
  8
0
 10
3.09924
 20
6.76118
 30
0.0
 40
0
 41
0
  0
VERTEX
  8
0
 10
3.0975
 20
6.77408
 30
0.0
 40
0
 41
0
  0
VERTEX
  8
0
 10
3.0925
 20
6.77979
 30
0.0
 40
0
 41
0
  0
VERTEX
  8
0
 10
3.10747
 20
6.79454
 30
0.0
 40
0
 41
0
  0
VERTEX
  8
0
 10
3.14421
 20
6.80751
 30
0.0
 40
0
 41
0
  0
VERTEX
  8
0
 10
3.19618
 20
6.81478
 30
0.0
 40
0
 41
0
  0
VERTEX
  8
0
 10
3.24799
 20
6.81515
 30
0.0
 40
0
 41
0
  0
VERTEX
  8
0
 10
3.2845
 20
6.80761
 30
0.0
 40
0
 41
0
  0
VERTEX
  8
0
 10
3.31956
 20
6.77919
 30
0.0
 40
0
 41
0
  0
VERTEX
  8
0
 10
3.35482
 20
6.73356
 30
0.0
 40
0
 41
0
  0
VERTEX
  8
0
 10
3.38368
 20
6.68061
 30
0.0
 40
0
 41
0
  0
VERTEX
  8
0
 10
3.3999
 20
6.63021
 30
0.0
 40
0
 41
0
  0
VERTEX
  8
0
 10
3.39979
 20
6.59847
 30
0.0
 40
0
 41
0
  0
VERTEX
  8
0
 10
3.39404
 20
6.55692
 30
0.0
 40
0
 41
0
  0
VERTEX
  8
0
 10
3.38553
 20
6.52083
 30
0.0
 40
0
 41
0
  0
VERTEX
  8
0
 10
3.37701
 20
6.50537
 30
0.0
 40
0
 41
0
  0
VERTEX
  8
0
 10
3.36626
 20
6.51074
 30
0.0
 40
0
 41
0
  0
VERTEX
  8
0
 10
3.34694
 20
6.52354
 30
0.0
 40
0
 41
0
  0
SEQEND
 8
0
  0
POLYLINE
  8
0
 62
     0
 66
     1
 10
0
 20
0
 30
0.0
 70
     1
 40
0
 41
0
  0
VERTEX
  8
0
 10
0.664606
 20
6.60308
 30
0.0
 40
0
 41
0
  0
VERTEX
  8
0
 10
0.654568
 20
6.62967
 30
0.0
 40
0
 41
0
  0
VERTEX
  8
0
 10
0.652886
 20
6.66411
 30
0.0
 40
0
 41
0
  0
VERTEX
  8
0
 10
0.663574
 20
6.68192
 30
0.0
 40
0
 41
0
  0
VERTEX
  8
0
 10
0.688368
 20
6.70871
 30
0.0
 40
0
 41
0
  0
VERTEX
  8
0
 10
0.719726
 20
6.74257
 30
0.0
 40
0
 41
0
  0
VERTEX
  8
0
 10
0.746528
 20
6.77724
 30
0.0
 40
0
 41
0
  0
VERTEX
  8
0
 10
0.776964
 20
6.81538
 30
0.0
 40
0
 41
0
  0
VERTEX
  8
0
 10
0.815701
 20
6.85406
 30
0.0
 40
0
 41
0
  0
VERTEX
  8
0
 10
0.853624
 20
6.88499
 30
0.0
 40
0
 41
0
  0
VERTEX
  8
0
 10
0.881782
 20
6.90007
 30
0.0
 40
0
 41
0
  0
VERTEX
  8
0
 10
0.901313
 20
6.90082
 30
0.0
 40
0
 41
0
  0
VERTEX
  8
0
 10
0.915528
 20
6.88949
 30
0.0
 40
0
 41
0
  0
VERTEX
  8
0
 10
0.924262
 20
6.875
 30
0.0
 40
0
 41
0
  0
VERTEX
  8
0
 10
0.927951
 20
6.86171
 30
0.0
 40
0
 41
0
  0
VERTEX
  8
0
 10
0.922689
 20
6.84864
 30
0.0
 40
0
 41
0
  0
VERTEX
  8
0
 10
0.909668
 20
6.83529
 30
0.0
 40
0
 41
0
  0
VERTEX
  8
0
 10
0.89285
 20
6.82497
 30
0.0
 40
0
 41
0
  0
VERTEX
  8
0
 10
0.876303
 20
6.82081
 30
0.0
 40
0
 41
0
  0
VERTEX
  8
0
 10
0.859972
 20
6.81401
 30
0.0
 40
0
 41
0
  0
VERTEX
  8
0
 10
0.840821
 20
6.79779
 30
0.0
 40
0
 41
0
  0
VERTEX
  8
0
 10
0.824815
 20
6.77826
 30
0.0
 40
0
 41
0
  0
VERTEX
  8
0
 10
0.818197
 20
6.76167
 30
0.0
 40
0
 41
0
  0
VERTEX
  8
0
 10
0.813965
 20
6.75342
 30
0.0
 40
0
 41
0
  0
VERTEX
  8
0
 10
0.802572
 20
6.73872
 30
0.0
 40
0
 41
0
  0
VERTEX
  8
0
 10
0.785644
 20
6.71972
 30
0.0
 40
0
 41
0
  0
VERTEX
  8
0
 10
0.765028
 20
6.69846
 30
0.0
 40
0
 41
0
  0
VERTEX
  8
0
 10
0.743326
 20
6.67578
 30
0.0
 40
0
 41
0
  0
VERTEX
  8
0
 10
0.723633
 20
6.65283
 30
0.0
 40
0
 41
0
  0
VERTEX
  8
0
 10
0.708062
 20
6.63232
 30
0.0
 40
0
 41
0
  0
VERTEX
  8
0
 10
0.698839
 20
6.61681
 30
0.0
 40
0
 41
0
  0
VERTEX
  8
0
 10
0.689182
 20
6.59765
 30
0.0
 40
0
 41
0
  0
VERTEX
  8
0
 10
0.681369
 20
6.58936
 30
0.0
 40
0
 41
0
  0
VERTEX
  8
0
 10
0.673719
 20
6.59142
 30
0.0
 40
0
 41
0
  0
VERTEX
  8
0
 10
0.664606
 20
6.60308
 30
0.0
 40
0
 41
0
  0
SEQEND
 8
0
  0
POLYLINE
  8
0
 62
     0
 66
     1
 10
0
 20
0
 30
0.0
 70
     1
 40
0
 41
0
  0
VERTEX
  8
0
 10
2.65435
 20
6.69851
 30
0.0
 40
0
 41
0
  0
VERTEX
  8
0
 10
2.63363
 20
6.71376
 30
0.0
 40
0
 41
0
  0
VERTEX
  8
0
 10
2.62864
 20
6.73307
 30
0.0
 40
0
 41
0
  0
VERTEX
  8
0
 10
2.63351
 20
6.75375
 30
0.0
 40
0
 41
0
  0
VERTEX
  8
0
 10
2.64621
 20
6.77458
 30
0.0
 40
0
 41
0
  0
VERTEX
  8
0
 10
2.65961
 20
6.79639
 30
0.0
 40
0
 41
0
  0
VERTEX
  8
0
 10
2.6594
 20
6.82118
 30
0.0
 40
0
 41
0
  0
VERTEX
  8
0
 10
2.65896
 20
6.84467
 30
0.0
 40
0
 41
0
  0
VERTEX
  8
0
 10
2.67503
 20
6.85867
 30
0.0
 40
0
 41
0
  0
VERTEX
  8
0
 10
2.69385
 20
6.87478
 30
0.0
 40
0
 41
0
  0
VERTEX
  8
0
 10
2.71126
 20
6.89686
 30
0.0
 40
0
 41
0
  0
VERTEX
  8
0
 10
2.74636
 20
6.9311
 30
0.0
 40
0
 41
0
  0
VERTEX
  8
0
 10
2.787
 20
6.92486
 30
0.0
 40
0
 41
0
  0
VERTEX
  8
0
 10
2.80713
 20
6.9151
 30
0.0
 40
0
 41
0
  0
VERTEX
  8
0
 10
2.82693
 20
6.90804
 30
0.0
 40
0
 41
0
  0
VERTEX
  8
0
 10
2.84201
 20
6.90494
 30
0.0
 40
0
 41
0
  0
VERTEX
  8
0
 10
2.84804
 20
6.90717
 30
0.0
 40
0
 41
0
  0
VERTEX
  8
0
 10
2.84125
 20
6.91965
 30
0.0
 40
0
 41
0
  0
VERTEX
  8
0
 10
2.82493
 20
6.94331
 30
0.0
 40
0
 41
0
  0
VERTEX
  8
0
 10
2.80533
 20
6.97222
 30
0.0
 40
0
 41
0
  0
VERTEX
  8
0
 10
2.79064
 20
6.99707
 30
0.0
 40
0
 41
0
  0
VERTEX
  8
0
 10
2.77983
 20
7.04183
 30
0.0
 40
0
 41
0
  0
VERTEX
  8
0
 10
2.78857
 20
7.08649
 30
0.0
 40
0
 41
0
  0
VERTEX
  8
0
 10
2.81375
 20
7.12369
 30
0.0
 40
0
 41
0
  0
VERTEX
  8
0
 10
2.85243
 20
7.14621
 30
0.0
 40
0
 41
0
  0
VERTEX
  8
0
 10
2.86507
 20
7.14589
 30
0.0
 40
0
 41
0
  0
VERTEX
  8
0
 10
2.87175
 20
7.13167
 30
0.0
 40
0
 41
0
  0
VERTEX
  8
0
 10
2.87646
 20
7.1129
 30
0.0
 40
0
 41
0
  0
VERTEX
  8
0
 10
2.89035
 20
7.13488
 30
0.0
 40
0
 41
0
  0
VERTEX
  8
0
 10
2.90881
 20
7.15246
 30
0.0
 40
0
 41
0
  0
VERTEX
  8
0
 10
2.91661
 20
7.13743
 30
0.0
 40
0
 41
0
  0
VERTEX
  8
0
 10
2.91157
 20
7.12175
 30
0.0
 40
0
 41
0
  0
VERTEX
  8
0
 10
2.89942
 20
7.10042
 30
0.0
 40
0
 41
0
  0
VERTEX
  8
0
 10
2.88297
 20
7.07389
 30
0.0
 40
0
 41
0
  0
VERTEX
  8
0
 10
2.87435
 20
7.05236
 30
0.0
 40
0
 41
0
  0
VERTEX
  8
0
 10
2.87244
 20
7.03196
 30
0.0
 40
0
 41
0
  0
VERTEX
  8
0
 10
2.87636
 20
7.00885
 30
0.0
 40
0
 41
0
  0
VERTEX
  8
0
 10
2.88726
 20
6.98199
 30
0.0
 40
0
 41
0
  0
VERTEX
  8
0
 10
2.90549
 20
6.96326
 30
0.0
 40
0
 41
0
  0
VERTEX
  8
0
 10
2.91743
 20
6.954
 30
0.0
 40
0
 41
0
  0
VERTEX
  8
0
 10
2.93419
 20
6.93972
 30
0.0
 40
0
 41
0
  0
VERTEX
  8
0
 10
2.9535
 20
6.92242
 30
0.0
 40
0
 41
0
  0
VERTEX
  8
0
 10
2.97319
 20
6.90403
 30
0.0
 40
0
 41
0
  0
VERTEX
  8
0
 10
3.01947
 20
6.85969
 30
0.0
 40
0
 41
0
  0
VERTEX
  8
0
 10
3.01947
 20
6.81956
 30
0.0
 40
0
 41
0
  0
VERTEX
  8
0
 10
3.01947
 20
6.77935
 30
0.0
 40
0
 41
0
  0
VERTEX
  8
0
 10
2.96294
 20
6.78358
 30
0.0
 40
0
 41
0
  0
VERTEX
  8
0
 10
2.93371
 20
6.78689
 30
0.0
 40
0
 41
0
  0
VERTEX
  8
0
 10
2.89594
 20
6.79253
 30
0.0
 40
0
 41
0
  0
VERTEX
  8
0
 10
2.85449
 20
6.79986
 30
0.0
 40
0
 41
0
  0
VERTEX
  8
0
 10
2.81435
 20
6.80794
 30
0.0
 40
0
 41
0
  0
VERTEX
  8
0
 10
2.77815
 20
6.81565
 30
0.0
 40
0
 41
0
  0
VERTEX
  8
0
 10
2.74778
 20
6.82161
 30
0.0
 40
0
 41
0
  0
VERTEX
  8
0
 10
2.72624
 20
6.82536
 30
0.0
 40
0
 41
0
  0
VERTEX
  8
0
 10
2.7169
 20
6.82617
 30
0.0
 40
0
 41
0
  0
VERTEX
  8
0
 10
2.71696
 20
6.81614
 30
0.0
 40
0
 41
0
  0
VERTEX
  8
0
 10
2.72483
 20
6.7946
 30
0.0
 40
0
 41
0
  0
VERTEX
  8
0
 10
2.73785
 20
6.77219
 30
0.0
 40
0
 41
0
  0
VERTEX
  8
0
 10
2.75022
 20
6.7685
 30
0.0
 40
0
 41
0
  0
VERTEX
  8
0
 10
2.82693
 20
6.78233
 30
0.0
 40
0
 41
0
  0
VERTEX
  8
0
 10
2.90158
 20
6.77681
 30
0.0
 40
0
 41
0
  0
VERTEX
  8
0
 10
2.94933
 20
6.76812
 30
0.0
 40
0
 41
0
  0
VERTEX
  8
0
 10
2.99013
 20
6.76183
 30
0.0
 40
0
 41
0
  0
VERTEX
  8
0
 10
3.02067
 20
6.75478
 30
0.0
 40
0
 41
0
  0
VERTEX
  8
0
 10
3.03694
 20
6.7405
 30
0.0
 40
0
 41
0
  0
VERTEX
  8
0
 10
3.04406
 20
6.72808
 30
0.0
 40
0
 41
0
  0
VERTEX
  8
0
 10
3.04579
 20
6.72185
 30
0.0
 40
0
 41
0
  0
VERTEX
  8
0
 10
3.03814
 20
6.72054
 30
0.0
 40
0
 41
0
  0
VERTEX
  8
0
 10
2.99121
 20
6.71533
 30
0.0
 40
0
 41
0
  0
VERTEX
  8
0
 10
2.95779
 20
6.71208
 30
0.0
 40
0
 41
0
  0
VERTEX
  8
0
 10
2.88693
 20
6.70768
 30
0.0
 40
0
 41
0
  0
VERTEX
  8
0
 10
2.84808
 20
6.71099
 30
0.0
 40
0
 41
0
  0
VERTEX
  8
0
 10
2.82275
 20
6.71653
 30
0.0
 40
0
 41
0
  0
VERTEX
  8
0
 10
2.79947
 20
6.7169
 30
0.0
 40
0
 41
0
  0
VERTEX
  8
0
 10
2.77479
 20
6.71181
 30
0.0
 40
0
 41
0
  0
VERTEX
  8
0
 10
2.74517
 20
6.70079
 30
0.0
 40
0
 41
0
  0
VERTEX
  8
0
 10
2.71528
 20
6.68929
 30
0.0
 40
0
 41
0
  0
VERTEX
  8
0
 10
2.69422
 20
6.68517
 30
0.0
 40
0
 41
0
  0
VERTEX
  8
0
 10
2.67594
 20
6.68832
 30
0.0
 40
0
 41
0
  0
VERTEX
  8
0
 10
2.65435
 20
6.69851
 30
0.0
 40
0
 41
0
  0
SEQEND
 8
0
  0
POLYLINE
  8
0
 62
     0
 66
     1
 10
0
 20
0
 30
0.0
 70
     1
 40
0
 41
0
  0
VERTEX
  8
0
 10
1.77561
 20
6.71208
 30
0.0
 40
0
 41
0
  0
VERTEX
  8
0
 10
1.76779
 20
6.72775
 30
0.0
 40
0
 41
0
  0
VERTEX
  8
0
 10
1.76454
 20
6.74322
 30
0.0
 40
0
 41
0
  0
VERTEX
  8
0
 10
1.76958
 20
6.76981
 30
0.0
 40
0
 41
0
  0
VERTEX
  8
0
 10
1.78407
 20
6.80528
 30
0.0
 40
0
 41
0
  0
VERTEX
  8
0
 10
1.80686
 20
6.8475
 30
0.0
 40
0
 41
0
  0
VERTEX
  8
0
 10
1.83686
 20
6.89399
 30
0.0
 40
0
 41
0
  0
VERTEX
  8
0
 10
1.85639
 20
6.92333
 30
0.0
 40
0
 41
0
  0
VERTEX
  8
0
 10
1.87728
 20
6.95628
 30
0.0
 40
0
 41
0
  0
VERTEX
  8
0
 10
1.89686
 20
6.98872
 30
0.0
 40
0
 41
0
  0
VERTEX
  8
0
 10
1.91282
 20
7.01671
 30
0.0
 40
0
 41
0
  0
VERTEX
  8
0
 10
1.92974
 20
7.04947
 30
0.0
 40
0
 41
0
  0
VERTEX
  8
0
 10
1.93972
 20
7.07411
 30
0.0
 40
0
 41
0
  0
VERTEX
  8
0
 10
1.94476
 20
7.09685
 30
0.0
 40
0
 41
0
  0
VERTEX
  8
0
 10
1.94694
 20
7.12414
 30
0.0
 40
0
 41
0
  0
VERTEX
  8
0
 10
1.94749
 20
7.15039
 30
0.0
 40
0
 41
0
  0
VERTEX
  8
0
 10
1.94581
 20
7.16797
 30
0.0
 40
0
 41
0
  0
VERTEX
  8
0
 10
1.94092
 20
7.18138
 30
0.0
 40
0
 41
0
  0
VERTEX
  8
0
 10
1.93197
 20
7.19472
 30
0.0
 40
0
 41
0
  0
VERTEX
  8
0
 10
1.90539
 20
7.21815
 30
0.0
 40
0
 41
0
  0
VERTEX
  8
0
 10
1.86544
 20
7.24294
 30
0.0
 40
0
 41
0
  0
VERTEX
  8
0
 10
1.77186
 20
7.30767
 30
0.0
 40
0
 41
0
  0
VERTEX
  8
0
 10
1.74278
 20
7.37022
 30
0.0
 40
0
 41
0
  0
VERTEX
  8
0
 10
1.77806
 20
7.42974
 30
0.0
 40
0
 41
0
  0
VERTEX
  8
0
 10
1.87771
 20
7.4854
 30
0.0
 40
0
 41
0
  0
VERTEX
  8
0
 10
1.92247
 20
7.5064
 30
0.0
 40
0
 41
0
  0
VERTEX
  8
0
 10
1.95313
 20
7.52544
 30
0.0
 40
0
 41
0
  0
VERTEX
  8
0
 10
1.97368
 20
7.54318
 30
0.0
 40
0
 41
0
  0
VERTEX
  8
0
 10
1.97331
 20
7.65001
 30
0.0
 40
0
 41
0
  0
VERTEX
  8
0
 10
1.97254
 20
7.70296
 30
0.0
 40
0
 41
0
  0
VERTEX
  8
0
 10
1.97043
 20
7.74214
 30
0.0
 40
0
 41
0
  0
VERTEX
  8
0
 10
1.96674
 20
7.77138
 30
0.0
 40
0
 41
0
  0
VERTEX
  8
0
 10
1.96104
 20
7.7946
 30
0.0
 40
0
 41
0
  0
VERTEX
  8
0
 10
1.95156
 20
7.83333
 30
0.0
 40
0
 41
0
  0
VERTEX
  8
0
 10
1.94553
 20
7.87349
 30
0.0
 40
0
 41
0
  0
VERTEX
  8
0
 10
1.94233
 20
7.90782
 30
0.0
 40
0
 41
0
  0
VERTEX
  8
0
 10
1.93972
 20
7.93257
 30
0.0
 40
0
 41
0
  0
VERTEX
  8
0
 10
1.93994
 20
7.94569
 30
0.0
 40
0
 41
0
  0
VERTEX
  8
0
 10
1.94206
 20
7.96826
 30
0.0
 40
0
 41
0
  0
VERTEX
  8
0
 10
1.94569
 20
7.99696
 30
0.0
 40
0
 41
0
  0
VERTEX
  8
0
 10
1.95025
 20
8.02864
 30
0.0
 40
0
 41
0
  0
VERTEX
  8
0
 10
1.95529
 20
8.05994
 30
0.0
 40
0
 41
0
  0
VERTEX
  8
0
 10
1.96024
 20
8.08772
 30
0.0
 40
0
 41
0
  0
VERTEX
  8
0
 10
1.96468
 20
8.10861
 30
0.0
 40
0
 41
0
  0
VERTEX
  8
0
 10
1.96815
 20
8.11947
 30
0.0
 40
0
 41
0
  0
VERTEX
  8
0
 10
1.98876
 20
8.15272
 30
0.0
 40
0
 41
0
  0
VERTEX
  8
0
 10
2.01215
 20
8.18685
 30
0.0
 40
0
 41
0
  0
VERTEX
  8
0
 10
2.03401
 20
8.21599
 30
0.0
 40
0
 41
0
  0
VERTEX
  8
0
 10
2.05012
 20
8.23421
 30
0.0
 40
0
 41
0
  0
VERTEX
  8
0
 10
2.07601
 20
8.2545
 30
0.0
 40
0
 41
0
  0
VERTEX
  8
0
 10
2.11083
 20
8.27832
 30
0.0
 40
0
 41
0
  0
VERTEX
  8
0
 10
2.14996
 20
8.30518
 30
0.0
 40
0
 41
0
  0
VERTEX
  8
0
 10
2.18631
 20
8.33285
 30
0.0
 40
0
 41
0
  0
VERTEX
  8
0
 10
2.22157
 20
8.35954
 30
0.0
 40
0
 41
0
  0
VERTEX
  8
0
 10
2.25831
 20
8.3839
 30
0.0
 40
0
 41
0
  0
VERTEX
  8
0
 10
2.28674
 20
8.40306
 30
0.0
 40
0
 41
0
  0
VERTEX
  8
0
 10
2.31993
 20
8.42828
 30
0.0
 40
0
 41
0
  0
VERTEX
  8
0
 10
2.35514
 20
8.45725
 30
0.0
 40
0
 41
0
  0
VERTEX
  8
0
 10
2.38981
 20
8.48768
 30
0.0
 40
0
 41
0
  0
VERTEX
  8
0
 10
2.42133
 20
8.51714
 30
0.0
 40
0
 41
0
  0
VERTEX
  8
0
 10
2.4471
 20
8.54324
 30
0.0
 40
0
 41
0
  0
VERTEX
  8
0
 10
2.46446
 20
8.56369
 30
0.0
 40
0
 41
0
  0
VERTEX
  8
0
 10
2.47086
 20
8.57607
 30
0.0
 40
0
 41
0
  0
VERTEX
  8
0
 10
2.47282
 20
8.5919
 30
0.0
 40
0
 41
0
  0
VERTEX
  8
0
 10
2.48275
 20
8.60553
 30
0.0
 40
0
 41
0
  0
VERTEX
  8
0
 10
2.48882
 20
8.61399
 30
0.0
 40
0
 41
0
  0
VERTEX
  8
0
 10
2.48828
 20
8.61751
 30
0.0
 40
0
 41
0
  0
VERTEX
  8
0
 10
2.49013
 20
8.62619
 30
0.0
 40
0
 41
0
  0
VERTEX
  8
0
 10
2.49963
 20
8.64438
 30
0.0
 40
0
 41
0
  0
VERTEX
  8
0
 10
2.51243
 20
8.67589
 30
0.0
 40
0
 41
0
  0
VERTEX
  8
0
 10
2.52458
 20
8.70692
 30
0.0
 40
0
 41
0
  0
VERTEX
  8
0
 10
2.53261
 20
8.72379
 30
0.0
 40
0
 41
0
  0
VERTEX
  8
0
 10
2.54531
 20
8.75256
 30
0.0
 40
0
 41
0
  0
VERTEX
  8
0
 10
2.55968
 20
8.80251
 30
0.0
 40
0
 41
0
  0
VERTEX
  8
0
 10
2.57346
 20
8.86458
 30
0.0
 40
0
 41
0
  0
VERTEX
  8
0
 10
2.58436
 20
8.92953
 30
0.0
 40
0
 41
0
  0
VERTEX
  8
0
 10
2.58604
 20
8.94933
 30
0.0
 40
0
 41
0
  0
VERTEX
  8
0
 10
2.58806
 20
9.04562
 30
0.0
 40
0
 41
0
  0
VERTEX
  8
0
 10
2.5855
 20
9.12933
 30
0.0
 40
0
 41
0
  0
VERTEX
  8
0
 10
2.58371
 20
9.13926
 30
0.0
 40
0
 41
0
  0
VERTEX
  8
0
 10
2.58117
 20
9.16558
 30
0.0
 40
0
 41
0
  0
VERTEX
  8
0
 10
2.58008
 20
9.22076
 30
0.0
 40
0
 41
0
  0
VERTEX
  8
0
 10
2.58046
 20
9.26346
 30
0.0
 40
0
 41
0
  0
VERTEX
  8
0
 10
2.58268
 20
9.28906
 30
0.0
 40
0
 41
0
  0
VERTEX
  8
0
 10
2.58817
 20
9.30556
 30
0.0
 40
0
 41
0
  0
VERTEX
  8
0
 10
2.59847
 20
9.32075
 30
0.0
 40
0
 41
0
  0
VERTEX
  8
0
 10
2.61469
 20
9.33729
 30
0.0
 40
0
 41
0
  0
VERTEX
  8
0
 10
2.62771
 20
9.34293
 30
0.0
 40
0
 41
0
  0
VERTEX
  8
0
 10
2.6415
 20
9.33393
 30
0.0
 40
0
 41
0
  0
VERTEX
  8
0
 10
2.65511
 20
9.31592
 30
0.0
 40
0
 41
0
  0
VERTEX
  8
0
 10
2.66476
 20
9.29525
 30
0.0
 40
0
 41
0
  0
VERTEX
  8
0
 10
2.66667
 20
9.27815
 30
0.0
 40
0
 41
0
  0
VERTEX
  8
0
 10
2.66699
 20
9.25586
 30
0.0
 40
0
 41
0
  0
VERTEX
  8
0
 10
2.67318
 20
9.22342
 30
0.0
 40
0
 41
0
  0
VERTEX
  8
0
 10
2.6805
 20
9.17828
 30
0.0
 40
0
 41
0
  0
VERTEX
  8
0
 10
2.68375
 20
9.12528
 30
0.0
 40
0
 41
0
  0
VERTEX
  8
0
 10
2.68593
 20
9.07487
 30
0.0
 40
0
 41
0
  0
VERTEX
  8
0
 10
2.69081
 20
9.03581
 30
0.0
 40
0
 41
0
  0
VERTEX
  8
0
 10
2.69786
 20
8.99914
 30
0.0
 40
0
 41
0
  0
VERTEX
  8
0
 10
2.7054
 20
8.95415
 30
0.0
 40
0
 41
0
  0
VERTEX
  8
0
 10
2.71539
 20
8.91038
 30
0.0
 40
0
 41
0
  0
VERTEX
  8
0
 10
2.73118
 20
8.88558
 30
0.0
 40
0
 41
0
  0
VERTEX
  8
0
 10
2.74772
 20
8.86535
 30
0.0
 40
0
 41
0
  0
VERTEX
  8
0
 10
2.76253
 20
8.84153
 30
0.0
 40
0
 41
0
  0
VERTEX
  8
0
 10
2.77354
 20
8.82206
 30
0.0
 40
0
 41
0
  0
VERTEX
  8
0
 10
2.78119
 20
8.81196
 30
0.0
 40
0
 41
0
  0
VERTEX
  8
0
 10
2.78581
 20
8.81207
 30
0.0
 40
0
 41
0
  0
VERTEX
  8
0
 10
2.78467
 20
8.82206
 30
0.0
 40
0
 41
0
  0
VERTEX
  8
0
 10
2.77756
 20
8.84233
 30
0.0
 40
0
 41
0
  0
VERTEX
  8
0
 10
2.76443
 20
8.87332
 30
0.0
 40
0
 41
0
  0
VERTEX
  8
0
 10
2.75201
 20
8.90332
 30
0.0
 40
0
 41
0
  0
VERTEX
  8
0
 10
2.74544
 20
8.9299
 30
0.0
 40
0
 41
0
  0
VERTEX
  8
0
 10
2.74278
 20
8.96619
 30
0.0
 40
0
 41
0
  0
VERTEX
  8
0
 10
2.74219
 20
9.02556
 30
0.0
 40
0
 41
0
  0
VERTEX
  8
0
 10
2.74143
 20
9.07872
 30
0.0
 40
0
 41
0
  0
VERTEX
  8
0
 10
2.73947
 20
9.11344
 30
0.0
 40
0
 41
0
  0
VERTEX
  8
0
 10
2.73562
 20
9.13564
 30
0.0
 40
0
 41
0
  0
VERTEX
  8
0
 10
2.72933
 20
9.15115
 30
0.0
 40
0
 41
0
  0
VERTEX
  8
0
 10
2.71978
 20
9.18083
 30
0.0
 40
0
 41
0
  0
VERTEX
  8
0
 10
2.71707
 20
9.22694
 30
0.0
 40
0
 41
0
  0
VERTEX
  8
0
 10
2.71778
 20
9.26378
 30
0.0
 40
0
 41
0
  0
VERTEX
  8
0
 10
2.72076
 20
9.28629
 30
0.0
 40
0
 41
0
  0
VERTEX
  8
0
 10
2.72738
 20
9.29964
 30
0.0
 40
0
 41
0
  0
VERTEX
  8
0
 10
2.73904
 20
9.30897
 30
0.0
 40
0
 41
0
  0
VERTEX
  8
0
 10
2.75358
 20
9.31418
 30
0.0
 40
0
 41
0
  0
VERTEX
  8
0
 10
2.76947
 20
9.30718
 30
0.0
 40
0
 41
0
  0
VERTEX
  8
0
 10
2.78728
 20
9.28999
 30
0.0
 40
0
 41
0
  0
VERTEX
  8
0
 10
2.80425
 20
9.26389
 30
0.0
 40
0
 41
0
  0
VERTEX
  8
0
 10
2.81831
 20
9.23264
 30
0.0
 40
0
 41
0
  0
VERTEX
  8
0
 10
2.82753
 20
9.19987
 30
0.0
 40
0
 41
0
  0
VERTEX
  8
0
 10
2.83882
 20
9.16357
 30
0.0
 40
0
 41
0
  0
VERTEX
  8
0
 10
2.85618
 20
9.12842
 30
0.0
 40
0
 41
0
  0
VERTEX
  8
0
 10
2.87896
 20
9.09229
 30
0.0
 40
0
 41
0
  0
VERTEX
  8
0
 10
2.89594
 20
9.06478
 30
0.0
 40
0
 41
0
  0
VERTEX
  8
0
 10
2.90793
 20
9.04389
 30
0.0
 40
0
 41
0
  0
VERTEX
  8
0
 10
2.91581
 20
9.02761
 30
0.0
 40
0
 41
0
  0
VERTEX
  8
0
 10
2.92046
 20
9.01383
 30
0.0
 40
0
 41
0
  0
VERTEX
  8
0
 10
2.92344
 20
8.98546
 30
0.0
 40
0
 41
0
  0
VERTEX
  8
0
 10
2.9235
 20
8.96669
 30
0.0
 40
0
 41
0
  0
VERTEX
  8
0
 10
2.92779
 20
8.91211
 30
0.0
 40
0
 41
0
  0
VERTEX
  8
0
 10
2.94233
 20
8.85314
 30
0.0
 40
0
 41
0
  0
VERTEX
  8
0
 10
2.95697
 20
8.79383
 30
0.0
 40
0
 41
0
  0
VERTEX
  8
0
 10
2.95931
 20
8.73887
 30
0.0
 40
0
 41
0
  0
VERTEX
  8
0
 10
2.96104
 20
8.6836
 30
0.0
 40
0
 41
0
  0
VERTEX
  8
0
 10
2.96789
 20
8.62571
 30
0.0
 40
0
 41
0
  0
VERTEX
  8
0
 10
2.97646
 20
8.56625
 30
0.0
 40
0
 41
0
  0
VERTEX
  8
0
 10
2.97792
 20
8.52115
 30
0.0
 40
0
 41
0
  0
VERTEX
  8
0
 10
2.97185
 20
8.48426
 30
0.0
 40
0
 41
0
  0
VERTEX
  8
0
 10
2.95801
 20
8.44933
 30
0.0
 40
0
 41
0
  0
VERTEX
  8
0
 10
2.94715
 20
8.42563
 30
0.0
 40
0
 41
0
  0
VERTEX
  8
0
 10
2.94097
 20
8.40468
 30
0.0
 40
0
 41
0
  0
VERTEX
  8
0
 10
2.93815
 20
8.3801
 30
0.0
 40
0
 41
0
  0
VERTEX
  8
0
 10
2.93744
 20
8.34549
 30
0.0
 40
0
 41
0
  0
VERTEX
  8
0
 10
2.9356
 20
8.29101
 30
0.0
 40
0
 41
0
  0
VERTEX
  8
0
 10
2.92958
 20
8.26471
 30
0.0
 40
0
 41
0
  0
VERTEX
  8
0
 10
2.91792
 20
8.26432
 30
0.0
 40
0
 41
0
  0
VERTEX
  8
0
 10
2.89919
 20
8.2876
 30
0.0
 40
0
 41
0
  0
VERTEX
  8
0
 10
2.88992
 20
8.30333
 30
0.0
 40
0
 41
0
  0
VERTEX
  8
0
 10
2.88482
 20
8.31836
 30
0.0
 40
0
 41
0
  0
VERTEX
  8
0
 10
2.88276
 20
8.33735
 30
0.0
 40
0
 41
0
  0
VERTEX
  8
0
 10
2.88297
 20
8.36475
 30
0.0
 40
0
 41
0
  0
VERTEX
  8
0
 10
2.87956
 20
8.44265
 30
0.0
 40
0
 41
0
  0
VERTEX
  8
0
 10
2.86415
 20
8.50592
 30
0.0
 40
0
 41
0
  0
VERTEX
  8
0
 10
2.85894
 20
8.5165
 30
0.0
 40
0
 41
0
  0
VERTEX
  8
0
 10
2.85628
 20
8.47521
 30
0.0
 40
0
 41
0
  0
VERTEX
  8
0
 10
2.85807
 20
8.41032
 30
0.0
 40
0
 41
0
  0
VERTEX
  8
0
 10
2.85986
 20
8.34114
 30
0.0
 40
0
 41
0
  0
VERTEX
  8
0
 10
2.85519
 20
8.28521
 30
0.0
 40
0
 41
0
  0
VERTEX
  8
0
 10
2.84679
 20
8.2749
 30
0.0
 40
0
 41
0
  0
VERTEX
  8
0
 10
2.82563
 20
8.2609
 30
0.0
 40
0
 41
0
  0
VERTEX
  8
0
 10
2.81049
 20
8.26514
 30
0.0
 40
0
 41
0
  0
VERTEX
  8
0
 10
2.80012
 20
8.28901
 30
0.0
 40
0
 41
0
  0
VERTEX
  8
0
 10
2.79346
 20
8.33361
 30
0.0
 40
0
 41
0
  0
VERTEX
  8
0
 10
2.78722
 20
8.38883
 30
0.0
 40
0
 41
0
  0
VERTEX
  8
0
 10
2.78033
 20
8.43576
 30
0.0
 40
0
 41
0
  0
VERTEX
  8
0
 10
2.77192
 20
8.486
 30
0.0
 40
0
 41
0
  0
VERTEX
  8
0
 10
2.76199
 20
8.54893
 30
0.0
 40
0
 41
0
  0
VERTEX
  8
0
 10
2.75
 20
8.6155
 30
0.0
 40
0
 41
0
  0
VERTEX
  8
0
 10
2.73529
 20
8.68039
 30
0.0
 40
0
 41
0
  0
VERTEX
  8
0
 10
2.7206
 20
8.73286
 30
0.0
 40
0
 41
0
  0
VERTEX
  8
0
 10
2.70861
 20
8.76199
 30
0.0
 40
0
 41
0
  0
VERTEX
  8
0
 10
2.69965
 20
8.77126
 30
0.0
 40
0
 41
0
  0
VERTEX
  8
0
 10
2.69206
 20
8.75971
 30
0.0
 40
0
 41
0
  0
VERTEX
  8
0
 10
2.68392
 20
8.73986
 30
0.0
 40
0
 41
0
  0
VERTEX
  8
0
 10
2.67469
 20
8.71354
 30
0.0
 40
0
 41
0
  0
VERTEX
  8
0
 10
2.62022
 20
8.58046
 30
0.0
 40
0
 41
0
  0
VERTEX
  8
0
 10
2.54312
 20
8.45638
 30
0.0
 40
0
 41
0
  0
VERTEX
  8
0
 10
2.51449
 20
8.4165
 30
0.0
 40
0
 41
0
  0
VERTEX
  8
0
 10
2.48421
 20
8.37381
 30
0.0
 40
0
 41
0
  0
VERTEX
  8
0
 10
2.45583
 20
8.33339
 30
0.0
 40
0
 41
0
  0
VERTEX
  8
0
 10
2.43306
 20
8.3004
 30
0.0
 40
0
 41
0
  0
VERTEX
  8
0
 10
2.41368
 20
8.27328
 30
0.0
 40
0
 41
0
  0
VERTEX
  8
0
 10
2.39486
 20
8.24869
 30
0.0
 40
0
 41
0
  0
VERTEX
  8
0
 10
2.37864
 20
8.22939
 30
0.0
 40
0
 41
0
  0
VERTEX
  8
0
 10
2.36724
 20
8.2181
 30
0.0
 40
0
 41
0
  0
VERTEX
  8
0
 10
2.31907
 20
8.18012
 30
0.0
 40
0
 41
0
  0
VERTEX
  8
0
 10
2.28114
 20
8.14714
 30
0.0
 40
0
 41
0
  0
VERTEX
  8
0
 10
2.24849
 20
8.11453
 30
0.0
 40
0
 41
0
  0
VERTEX
  8
0
 10
2.21604
 20
8.07758
 30
0.0
 40
0
 41
0
  0
VERTEX
  8
0
 10
2.19493
 20
8.05149
 30
0.0
 40
0
 41
0
  0
VERTEX
  8
0
 10
2.17551
 20
8.0255
 30
0.0
 40
0
 41
0
  0
VERTEX
  8
0
 10
2.15989
 20
8.00271
 30
0.0
 40
0
 41
0
  0
VERTEX
  8
0
 10
2.15028
 20
7.98606
 30
0.0
 40
0
 41
0
  0
VERTEX
  8
0
 10
2.13628
 20
7.9459
 30
0.0
 40
0
 41
0
  0
VERTEX
  8
0
 10
2.12028
 20
7.88357
 30
0.0
 40
0
 41
0
  0
VERTEX
  8
0
 10
2.10487
 20
7.81039
 30
0.0
 40
0
 41
0
  0
VERTEX
  8
0
 10
2.09261
 20
7.73747
 30
0.0
 40
0
 41
0
  0
VERTEX
  8
0
 10
2.0886
 20
7.69401
 30
0.0
 40
0
 41
0
  0
VERTEX
  8
0
 10
2.0905
 20
7.65192
 30
0.0
 40
0
 41
0
  0
VERTEX
  8
0
 10
2.09907
 20
7.60428
 30
0.0
 40
0
 41
0
  0
VERTEX
  8
0
 10
2.11513
 20
7.544
 30
0.0
 40
0
 41
0
  0
VERTEX
  8
0
 10
2.11951
 20
7.51682
 30
0.0
 40
0
 41
0
  0
VERTEX
  8
0
 10
2.11833
 20
7.49035
 30
0.0
 40
0
 41
0
  0
VERTEX
  8
0
 10
2.10981
 20
7.46756
 30
0.0
 40
0
 41
0
  0
VERTEX
  8
0
 10
2.09011
 20
7.45464
 30
0.0
 40
0
 41
0
  0
VERTEX
  8
0
 10
2.06635
 20
7.44775
 30
0.0
 40
0
 41
0
  0
VERTEX
  8
0
 10
2.0421
 20
7.44488
 30
0.0
 40
0
 41
0
  0
VERTEX
  8
0
 10
1.97651
 20
7.433
 30
0.0
 40
0
 41
0
  0
VERTEX
  8
0
 10
1.91249
 20
7.39258
 30
0.0
 40
0
 41
0
  0
VERTEX
  8
0
 10
1.88064
 20
7.36322
 30
0.0
 40
0
 41
0
  0
VERTEX
  8
0
 10
1.8674
 20
7.34478
 30
0.0
 40
0
 41
0
  0
VERTEX
  8
0
 10
1.88422
 20
7.3291
 30
0.0
 40
0
 41
0
  0
VERTEX
  8
0
 10
1.93083
 20
7.30431
 30
0.0
 40
0
 41
0
  0
VERTEX
  8
0
 10
1.96283
 20
7.28831
 30
0.0
 40
0
 41
0
  0
VERTEX
  8
0
 10
1.98693
 20
7.27371
 30
0.0
 40
0
 41
0
  0
VERTEX
  8
0
 10
2.00592
 20
7.25857
 30
0.0
 40
0
 41
0
  0
VERTEX
  8
0
 10
2.02268
 20
7.24094
 30
0.0
 40
0
 41
0
  0
VERTEX
  8
0
 10
2.05078
 20
7.21371
 30
0.0
 40
0
 41
0
  0
VERTEX
  8
0
 10
2.0784
 20
7.19928
 30
0.0
 40
0
 41
0
  0
VERTEX
  8
0
 10
2.10135
 20
7.18858
 30
0.0
 40
0
 41
0
  0
VERTEX
  8
0
 10
2.11003
 20
7.16954
 30
0.0
 40
0
 41
0
  0
VERTEX
  8
0
 10
2.11057
 20
7.14903
 30
0.0
 40
0
 41
0
  0
VERTEX
  8
0
 10
2.10493
 20
7.13015
 30
0.0
 40
0
 41
0
  0
VERTEX
  8
0
 10
2.09082
 20
7.10363
 30
0.0
 40
0
 41
0
  0
VERTEX
  8
0
 10
2.07026
 20
7.06483
 30
0.0
 40
0
 41
0
  0
VERTEX
  8
0
 10
2.0529
 20
7.02849
 30
0.0
 40
0
 41
0
  0
VERTEX
  8
0
 10
2.04812
 20
7.00489
 30
0.0
 40
0
 41
0
  0
VERTEX
  8
0
 10
2.05626
 20
6.98969
 30
0.0
 40
0
 41
0
  0
VERTEX
  8
0
 10
2.07775
 20
6.97863
 30
0.0
 40
0
 41
0
  0
VERTEX
  8
0
 10
2.10633
 20
6.9681
 30
0.0
 40
0
 41
0
  0
VERTEX
  8
0
 10
2.05176
 20
6.94168
 30
0.0
 40
0
 41
0
  0
VERTEX
  8
0
 10
2.00499
 20
6.91499
 30
0.0
 40
0
 41
0
  0
VERTEX
  8
0
 10
1.97515
 20
6.88747
 30
0.0
 40
0
 41
0
  0
VERTEX
  8
0
 10
1.95378
 20
6.86263
 30
0.0
 40
0
 41
0
  0
VERTEX
  8
0
 10
1.93326
 20
6.84196
 30
0.0
 40
0
 41
0
  0
VERTEX
  8
0
 10
1.90082
 20
6.81207
 30
0.0
 40
0
 41
0
  0
VERTEX
  8
0
 10
1.88217
 20
6.79124
 30
0.0
 40
0
 41
0
  0
VERTEX
  8
0
 10
1.87354
 20
6.77442
 30
0.0
 40
0
 41
0
  0
VERTEX
  8
0
 10
1.87131
 20
6.75635
 30
0.0
 40
0
 41
0
  0
VERTEX
  8
0
 10
1.86681
 20
6.73215
 30
0.0
 40
0
 41
0
  0
VERTEX
  8
0
 10
1.84685
 20
6.71733
 30
0.0
 40
0
 41
0
  0
VERTEX
  8
0
 10
1.81956
 20
6.70486
 30
0.0
 40
0
 41
0
  0
VERTEX
  8
0
 10
1.79997
 20
6.69993
 30
0.0
 40
0
 41
0
  0
VERTEX
  8
0
 10
1.78597
 20
6.70242
 30
0.0
 40
0
 41
0
  0
VERTEX
  8
0
 10
1.77561
 20
6.71208
 30
0.0
 40
0
 41
0
  0
SEQEND
 8
0
  0
POLYLINE
  8
0
 62
     0
 66
     1
 10
0
 20
0
 30
0.0
 70
     1
 40
0
 41
0
  0
VERTEX
  8
0
 10
4.46306
 20
6.72618
 30
0.0
 40
0
 41
0
  0
VERTEX
  8
0
 10
4.42367
 20
6.75146
 30
0.0
 40
0
 41
0
  0
VERTEX
  8
0
 10
4.40022
 20
6.78863
 30
0.0
 40
0
 41
0
  0
VERTEX
  8
0
 10
4.39204
 20
6.80518
 30
0.0
 40
0
 41
0
  0
VERTEX
  8
0
 10
4.38049
 20
6.81244
 30
0.0
 40
0
 41
0
  0
VERTEX
  8
0
 10
4.34912
 20
6.81922
 30
0.0
 40
0
 41
0
  0
VERTEX
  8
0
 10
4.32921
 20
6.8291
 30
0.0
 40
0
 41
0
  0
VERTEX
  8
0
 10
4.31863
 20
6.84369
 30
0.0
 40
0
 41
0
  0
VERTEX
  8
0
 10
4.3156
 20
6.86458
 30
0.0
 40
0
 41
0
  0
VERTEX
  8
0
 10
4.31808
 20
6.8845
 30
0.0
 40
0
 41
0
  0
VERTEX
  8
0
 10
4.32503
 20
6.89931
 30
0.0
 40
0
 41
0
  0
VERTEX
  8
0
 10
4.33544
 20
6.90771
 30
0.0
 40
0
 41
0
  0
VERTEX
  8
0
 10
4.34831
 20
6.90836
 30
0.0
 40
0
 41
0
  0
VERTEX
  8
0
 10
4.35954
 20
6.90896
 30
0.0
 40
0
 41
0
  0
VERTEX
  8
0
 10
4.35889
 20
6.92671
 30
0.0
 40
0
 41
0
  0
VERTEX
  8
0
 10
4.36094
 20
6.95057
 30
0.0
 40
0
 41
0
  0
VERTEX
  8
0
 10
4.37381
 20
6.96619
 30
0.0
 40
0
 41
0
  0
VERTEX
  8
0
 10
4.39421
 20
6.97157
 30
0.0
 40
0
 41
0
  0
VERTEX
  8
0
 10
4.41894
 20
6.96457
 30
0.0
 40
0
 41
0
  0
VERTEX
  8
0
 10
4.43192
 20
6.95204
 30
0.0
 40
0
 41
0
  0
VERTEX
  8
0
 10
4.44271
 20
6.93115
 30
0.0
 40
0
 41
0
  0
VERTEX
  8
0
 10
4.45003
 20
6.90494
 30
0.0
 40
0
 41
0
  0
VERTEX
  8
0
 10
4.45275
 20
6.87651
 30
0.0
 40
0
 41
0
  0
VERTEX
  8
0
 10
4.46083
 20
6.81879
 30
0.0
 40
0
 41
0
  0
VERTEX
  8
0
 10
4.48763
 20
6.77106
 30
0.0
 40
0
 41
0
  0
VERTEX
  8
0
 10
4.50131
 20
6.75092
 30
0.0
 40
0
 41
0
  0
VERTEX
  8
0
 10
4.50429
 20
6.73981
 30
0.0
 40
0
 41
0
  0
VERTEX
  8
0
 10
4.4981
 20
6.7404
 30
0.0
 40
0
 41
0
  0
VERTEX
  8
0
 10
4.4899
 20
6.74843
 30
0.0
 40
0
 41
0
  0
VERTEX
  8
0
 10
4.48199
 20
6.75717
 30
0.0
 40
0
 41
0
  0
VERTEX
  8
0
 10
4.48019
 20
6.75054
 30
0.0
 40
0
 41
0
  0
VERTEX
  8
0
 10
4.48703
 20
6.73508
 30
0.0
 40
0
 41
0
  0
VERTEX
  8
0
 10
4.49371
 20
6.72467
 30
0.0
 40
0
 41
0
  0
VERTEX
  8
0
 10
4.48876
 20
6.71847
 30
0.0
 40
0
 41
0
  0
VERTEX
  8
0
 10
4.47906
 20
6.72103
 30
0.0
 40
0
 41
0
  0
VERTEX
  8
0
 10
4.46306
 20
6.72618
 30
0.0
 40
0
 41
0
  0
SEQEND
 8
0
  0
POLYLINE
  8
0
 62
     0
 66
     1
 10
0
 20
0
 30
0.0
 70
     1
 40
0
 41
0
  0
VERTEX
  8
0
 10
4.00928
 20
6.79085
 30
0.0
 40
0
 41
0
  0
VERTEX
  8
0
 10
3.98622
 20
6.80399
 30
0.0
 40
0
 41
0
  0
VERTEX
  8
0
 10
3.96115
 20
6.82954
 30
0.0
 40
0
 41
0
  0
VERTEX
  8
0
 10
3.94006
 20
6.86014
 30
0.0
 40
0
 41
0
  0
VERTEX
  8
0
 10
3.9291
 20
6.88829
 30
0.0
 40
0
 41
0
  0
VERTEX
  8
0
 10
3.92887
 20
6.91217
 30
0.0
 40
0
 41
0
  0
VERTEX
  8
0
 10
3.93446
 20
6.93468
 30
0.0
 40
0
 41
0
  0
VERTEX
  8
0
 10
3.94417
 20
6.95144
 30
0.0
 40
0
 41
0
  0
VERTEX
  8
0
 10
3.95622
 20
6.95796
 30
0.0
 40
0
 41
0
  0
VERTEX
  8
0
 10
3.96951
 20
6.94683
 30
0.0
 40
0
 41
0
  0
VERTEX
  8
0
 10
3.99029
 20
6.92008
 30
0.0
 40
0
 41
0
  0
VERTEX
  8
0
 10
4.01844
 20
6.88835
 30
0.0
 40
0
 41
0
  0
VERTEX
  8
0
 10
4.0466
 20
6.87586
 30
0.0
 40
0
 41
0
  0
VERTEX
  8
0
 10
4.07574
 20
6.8826
 30
0.0
 40
0
 41
0
  0
VERTEX
  8
0
 10
4.10688
 20
6.90842
 30
0.0
 40
0
 41
0
  0
VERTEX
  8
0
 10
4.12571
 20
6.93224
 30
0.0
 40
0
 41
0
  0
VERTEX
  8
0
 10
4.13444
 20
6.95649
 30
0.0
 40
0
 41
0
  0
VERTEX
  8
0
 10
4.13444
 20
6.99056
 30
0.0
 40
0
 41
0
  0
VERTEX
  8
0
 10
4.12711
 20
7.04368
 30
0.0
 40
0
 41
0
  0
VERTEX
  8
0
 10
4.12717
 20
7.07086
 30
0.0
 40
0
 41
0
  0
VERTEX
  8
0
 10
4.14442
 20
7.09706
 30
0.0
 40
0
 41
0
  0
VERTEX
  8
0
 10
4.15994
 20
7.1129
 30
0.0
 40
0
 41
0
  0
VERTEX
  8
0
 10
4.17215
 20
7.11675
 30
0.0
 40
0
 41
0
  0
VERTEX
  8
0
 10
4.18349
 20
7.10818
 30
0.0
 40
0
 41
0
  0
VERTEX
  8
0
 10
4.19646
 20
7.08664
 30
0.0
 40
0
 41
0
  0
VERTEX
  8
0
 10
4.20692
 20
7.05675
 30
0.0
 40
0
 41
0
  0
VERTEX
  8
0
 10
4.21897
 20
7.01036
 30
0.0
 40
0
 41
0
  0
VERTEX
  8
0
 10
4.22889
 20
6.96289
 30
0.0
 40
0
 41
0
  0
VERTEX
  8
0
 10
4.23313
 20
6.92979
 30
0.0
 40
0
 41
0
  0
VERTEX
  8
0
 10
4.23019
 20
6.91835
 30
0.0
 40
0
 41
0
  0
VERTEX
  8
0
 10
4.22054
 20
6.90261
 30
0.0
 40
0
 41
0
  0
VERTEX
  8
0
 10
4.20307
 20
6.88124
 30
0.0
 40
0
 41
0
  0
VERTEX
  8
0
 10
4.17671
 20
6.8526
 30
0.0
 40
0
 41
0
  0
VERTEX
  8
0
 10
4.12017
 20
6.79329
 30
0.0
 40
0
 41
0
  0
VERTEX
  8
0
 10
4.07215
 20
6.79042
 30
0.0
 40
0
 41
0
  0
VERTEX
  8
0
 10
4.03386
 20
6.78939
 30
0.0
 40
0
 41
0
  0
VERTEX
  8
0
 10
4.00928
 20
6.79085
 30
0.0
 40
0
 41
0
  0
SEQEND
 8
0
  0
POLYLINE
  8
0
 62
     0
 66
     1
 10
0
 20
0
 30
0.0
 70
     1
 40
0
 41
0
  0
VERTEX
  8
0
 10
5.90315
 20
6.87354
 30
0.0
 40
0
 41
0
  0
VERTEX
  8
0
 10
5.88747
 20
6.88292
 30
0.0
 40
0
 41
0
  0
VERTEX
  8
0
 10
5.87711
 20
6.89447
 30
0.0
 40
0
 41
0
  0
VERTEX
  8
0
 10
5.86783
 20
6.91504
 30
0.0
 40
0
 41
0
  0
VERTEX
  8
0
 10
5.85563
 20
6.95128
 30
0.0
 40
0
 41
0
  0
VERTEX
  8
0
 10
5.83653
 20
7.00456
 30
0.0
 40
0
 41
0
  0
VERTEX
  8
0
 10
5.8144
 20
7.05989
 30
0.0
 40
0
 41
0
  0
VERTEX
  8
0
 10
5.79964
 20
7.09808
 30
0.0
 40
0
 41
0
  0
VERTEX
  8
0
 10
5.79167
 20
7.1281
 30
0.0
 40
0
 41
0
  0
VERTEX
  8
0
 10
5.79047
 20
7.14899
 30
0.0
 40
0
 41
0
  0
VERTEX
  8
0
 10
5.79633
 20
7.15994
 30
0.0
 40
0
 41
0
  0
VERTEX
  8
0
 10
5.80757
 20
7.1544
 30
0.0
 40
0
 41
0
  0
VERTEX
  8
0
 10
5.82607
 20
7.1346
 30
0.0
 40
0
 41
0
  0
VERTEX
  8
0
 10
5.84663
 20
7.10693
 30
0.0
 40
0
 41
0
  0
VERTEX
  8
0
 10
5.86399
 20
7.07769
 30
0.0
 40
0
 41
0
  0
VERTEX
  8
0
 10
5.88379
 20
7.04172
 30
0.0
 40
0
 41
0
  0
VERTEX
  8
0
 10
5.91189
 20
6.99414
 30
0.0
 40
0
 41
0
  0
VERTEX
  8
0
 10
5.93587
 20
6.94982
 30
0.0
 40
0
 41
0
  0
VERTEX
  8
0
 10
5.94933
 20
6.91363
 30
0.0
 40
0
 41
0
  0
VERTEX
  8
0
 10
5.95188
 20
6.88683
 30
0.0
 40
0
 41
0
  0
VERTEX
  8
0
 10
5.94331
 20
6.87067
 30
0.0
 40
0
 41
0
  0
VERTEX
  8
0
 10
5.9344
 20
6.86475
 30
0.0
 40
0
 41
0
  0
VERTEX
  8
0
 10
5.92719
 20
6.86301
 30
0.0
 40
0
 41
0
  0
VERTEX
  8
0
 10
5.91803
 20
6.86589
 30
0.0
 40
0
 41
0
  0
VERTEX
  8
0
 10
5.90315
 20
6.87354
 30
0.0
 40
0
 41
0
  0
SEQEND
 8
0
  0
POLYLINE
  8
0
 62
     0
 66
     1
 10
0
 20
0
 30
0.0
 70
     1
 40
0
 41
0
  0
VERTEX
  8
0
 10
2.9751
 20
6.93571
 30
0.0
 40
0
 41
0
  0
VERTEX
  8
0
 10
2.95632
 20
6.96132
 30
0.0
 40
0
 41
0
  0
VERTEX
  8
0
 10
2.93582
 20
6.99636
 30
0.0
 40
0
 41
0
  0
VERTEX
  8
0
 10
2.9235
 20
7.02089
 30
0.0
 40
0
 41
0
  0
VERTEX
  8
0
 10
2.91835
 20
7.03608
 30
0.0
 40
0
 41
0
  0
VERTEX
  8
0
 10
2.91943
 20
7.04807
 30
0.0
 40
0
 41
0
  0
VERTEX
  8
0
 10
2.92583
 20
7.06293
 30
0.0
 40
0
 41
0
  0
VERTEX
  8
0
 10
2.93608
 20
7.08165
 30
0.0
 40
0
 41
0
  0
VERTEX
  8
0
 10
2.94422
 20
7.09179
 30
0.0
 40
0
 41
0
  0
VERTEX
  8
0
 10
2.9509
 20
7.10835
 30
0.0
 40
0
 41
0
  0
VERTEX
  8
0
 10
2.96365
 20
7.13135
 30
0.0
 40
0
 41
0
  0
VERTEX
  8
0
 10
2.99826
 20
7.16363
 30
0.0
 40
0
 41
0
  0
VERTEX
  8
0
 10
3.04932
 20
7.20079
 30
0.0
 40
0
 41
0
  0
VERTEX
  8
0
 10
3.11133
 20
7.23844
 30
0.0
 40
0
 41
0
  0
VERTEX
  8
0
 10
3.14469
 20
7.25331
 30
0.0
 40
0
 41
0
  0
VERTEX
  8
0
 10
3.17188
 20
7.25781
 30
0.0
 40
0
 41
0
  0
VERTEX
  8
0
 10
3.1914
 20
7.25206
 30
0.0
 40
0
 41
0
  0
VERTEX
  8
0
 10
3.20176
 20
7.23606
 30
0.0
 40
0
 41
0
  0
VERTEX
  8
0
 10
3.2021
 20
7.21419
 30
0.0
 40
0
 41
0
  0
VERTEX
  8
0
 10
3.18983
 20
7.19379
 30
0.0
 40
0
 41
0
  0
VERTEX
  8
0
 10
3.16265
 20
7.17231
 30
0.0
 40
0
 41
0
  0
VERTEX
  8
0
 10
3.11833
 20
7.14729
 30
0.0
 40
0
 41
0
  0
VERTEX
  8
0
 10
3.07428
 20
7.12267
 30
0.0
 40
0
 41
0
  0
VERTEX
  8
0
 10
3.04958
 20
7.10004
 30
0.0
 40
0
 41
0
  0
VERTEX
  8
0
 10
3.03831
 20
7.07118
 30
0.0
 40
0
 41
0
  0
VERTEX
  8
0
 10
3.03467
 20
7.02772
 30
0.0
 40
0
 41
0
  0
VERTEX
  8
0
 10
3.0325
 20
6.98139
 30
0.0
 40
0
 41
0
  0
VERTEX
  8
0
 10
3.02875
 20
6.95383
 30
0.0
 40
0
 41
0
  0
VERTEX
  8
0
 10
3.02165
 20
6.93832
 30
0.0
 40
0
 41
0
  0
VERTEX
  8
0
 10
3.00956
 20
6.92794
 30
0.0
 40
0
 41
0
  0
VERTEX
  8
0
 10
2.99251
 20
6.92111
 30
0.0
 40
0
 41
0
  0
VERTEX
  8
0
 10
2.9751
 20
6.93571
 30
0.0
 40
0
 41
0
  0
SEQEND
 8
0
  0
POLYLINE
  8
0
 62
     0
 66
     1
 10
0
 20
0
 30
0.0
 70
     1
 40
0
 41
0
  0
VERTEX
  8
0
 10
4.00558
 20
6.92871
 30
0.0
 40
0
 41
0
  0
VERTEX
  8
0
 10
3.98606
 20
6.95893
 30
0.0
 40
0
 41
0
  0
VERTEX
  8
0
 10
3.98215
 20
6.98226
 30
0.0
 40
0
 41
0
  0
VERTEX
  8
0
 10
3.98042
 20
6.99517
 30
0.0
 40
0
 41
0
  0
VERTEX
  8
0
 10
3.97401
 20
7.00922
 30
0.0
 40
0
 41
0
  0
VERTEX
  8
0
 10
3.96619
 20
7.03825
 30
0.0
 40
0
 41
0
  0
VERTEX
  8
0
 10
3.95443
 20
7.0734
 30
0.0
 40
0
 41
0
  0
VERTEX
  8
0
 10
3.93864
 20
7.102
 30
0.0
 40
0
 41
0
  0
VERTEX
  8
0
 10
3.92003
 20
7.13092
 30
0.0
 40
0
 41
0
  0
VERTEX
  8
0
 10
3.90158
 20
7.16667
 30
0.0
 40
0
 41
0
  0
VERTEX
  8
0
 10
3.89208
 20
7.18858
 30
0.0
 40
0
 41
0
  0
VERTEX
  8
0
 10
3.88797
 20
7.20231
 30
0.0
 40
0
 41
0
  0
VERTEX
  8
0
 10
3.88851
 20
7.21094
 30
0.0
 40
0
 41
0
  0
VERTEX
  8
0
 10
3.89339
 20
7.21761
 30
0.0
 40
0
 41
0
  0
VERTEX
  8
0
 10
3.90679
 20
7.22379
 30
0.0
 40
0
 41
0
  0
VERTEX
  8
0
 10
3.92324
 20
7.21832
 30
0.0
 40
0
 41
0
  0
VERTEX
  8
0
 10
3.94254
 20
7.20128
 30
0.0
 40
0
 41
0
  0
VERTEX
  8
0
 10
3.96474
 20
7.17264
 30
0.0
 40
0
 41
0
  0
VERTEX
  8
0
 10
3.99522
 20
7.13374
 30
0.0
 40
0
 41
0
  0
VERTEX
  8
0
 10
4.03028
 20
7.09608
 30
0.0
 40
0
 41
0
  0
VERTEX
  8
0
 10
4.05479
 20
7.0695
 30
0.0
 40
0
 41
0
  0
VERTEX
  8
0
 10
4.0709
 20
7.04417
 30
0.0
 40
0
 41
0
  0
VERTEX
  8
0
 10
4.07964
 20
7.01768
 30
0.0
 40
0
 41
0
  0
VERTEX
  8
0
 10
4.08242
 20
6.98742
 30
0.0
 40
0
 41
0
  0
VERTEX
  8
0
 10
4.07411
 20
6.94819
 30
0.0
 40
0
 41
0
  0
VERTEX
  8
0
 10
4.05393
 20
6.92725
 30
0.0
 40
0
 41
0
  0
VERTEX
  8
0
 10
4.02869
 20
6.92014
 30
0.0
 40
0
 41
0
  0
VERTEX
  8
0
 10
4.01671
 20
6.92111
 30
0.0
 40
0
 41
0
  0
VERTEX
  8
0
 10
4.00558
 20
6.92871
 30
0.0
 40
0
 41
0
  0
SEQEND
 8
0
  0
POLYLINE
  8
0
 62
     0
 66
     1
 10
0
 20
0
 30
0.0
 70
     1
 40
0
 41
0
  0
VERTEX
  8
0
 10
2.62864
 20
6.94911
 30
0.0
 40
0
 41
0
  0
VERTEX
  8
0
 10
2.60394
 20
6.96588
 30
0.0
 40
0
 41
0
  0
VERTEX
  8
0
 10
2.58371
 20
6.99289
 30
0.0
 40
0
 41
0
  0
VERTEX
  8
0
 10
2.57949
 20
7.00433
 30
0.0
 40
0
 41
0
  0
VERTEX
  8
0
 10
2.57943
 20
7.01822
 30
0.0
 40
0
 41
0
  0
VERTEX
  8
0
 10
2.58425
 20
7.03965
 30
0.0
 40
0
 41
0
  0
VERTEX
  8
0
 10
2.59472
 20
7.07346
 30
0.0
 40
0
 41
0
  0
VERTEX
  8
0
 10
2.60894
 20
7.11996
 30
0.0
 40
0
 41
0
  0
VERTEX
  8
0
 10
2.6149
 20
7.14344
 30
0.0
 40
0
 41
0
  0
VERTEX
  8
0
 10
2.61735
 20
7.15056
 30
0.0
 40
0
 41
0
  0
VERTEX
  8
0
 10
2.62408
 20
7.1645
 30
0.0
 40
0
 41
0
  0
VERTEX
  8
0
 10
2.63406
 20
7.18332
 30
0.0
 40
0
 41
0
  0
VERTEX
  8
0
 10
2.64621
 20
7.20492
 30
0.0
 40
0
 41
0
  0
VERTEX
  8
0
 10
2.66911
 20
7.24935
 30
0.0
 40
0
 41
0
  0
VERTEX
  8
0
 10
2.68018
 20
7.27974
 30
0.0
 40
0
 41
0
  0
VERTEX
  8
0
 10
2.68522
 20
7.29915
 30
0.0
 40
0
 41
0
  0
VERTEX
  8
0
 10
2.69374
 20
7.317
 30
0.0
 40
0
 41
0
  0
VERTEX
  8
0
 10
2.70171
 20
7.33996
 30
0.0
 40
0
 41
0
  0
VERTEX
  8
0
 10
2.70269
 20
7.37711
 30
0.0
 40
0
 41
0
  0
VERTEX
  8
0
 10
2.70063
 20
7.42046
 30
0.0
 40
0
 41
0
  0
VERTEX
  8
0
 10
2.66803
 20
7.42964
 30
0.0
 40
0
 41
0
  0
VERTEX
  8
0
 10
2.64296
 20
7.44011
 30
0.0
 40
0
 41
0
  0
VERTEX
  8
0
 10
2.62744
 20
7.45535
 30
0.0
 40
0
 41
0
  0
VERTEX
  8
0
 10
2.62067
 20
7.47672
 30
0.0
 40
0
 41
0
  0
VERTEX
  8
0
 10
2.62185
 20
7.50543
 30
0.0
 40
0
 41
0
  0
VERTEX
  8
0
 10
2.6269
 20
7.52713
 30
0.0
 40
0
 41
0
  0
VERTEX
  8
0
 10
2.63607
 20
7.53987
 30
0.0
 40
0
 41
0
  0
VERTEX
  8
0
 10
2.65235
 20
7.546
 30
0.0
 40
0
 41
0
  0
VERTEX
  8
0
 10
2.6786
 20
7.54764
 30
0.0
 40
0
 41
0
  0
VERTEX
  8
0
 10
2.71571
 20
7.5529
 30
0.0
 40
0
 41
0
  0
VERTEX
  8
0
 10
2.74664
 20
7.5664
 30
0.0
 40
0
 41
0
  0
VERTEX
  8
0
 10
2.76687
 20
7.58544
 30
0.0
 40
0
 41
0
  0
VERTEX
  8
0
 10
2.77203
 20
7.60704
 30
0.0
 40
0
 41
0
  0
VERTEX
  8
0
 10
2.77132
 20
7.62082
 30
0.0
 40
0
 41
0
  0
VERTEX
  8
0
 10
2.77886
 20
7.62787
 30
0.0
 40
0
 41
0
  0
VERTEX
  8
0
 10
2.79975
 20
7.62989
 30
0.0
 40
0
 41
0
  0
VERTEX
  8
0
 10
2.83919
 20
7.62842
 30
0.0
 40
0
 41
0
  0
VERTEX
  8
0
 10
2.90571
 20
7.62494
 30
0.0
 40
0
 41
0
  0
VERTEX
  8
0
 10
2.92839
 20
7.59831
 30
0.0
 40
0
 41
0
  0
VERTEX
  8
0
 10
2.94971
 20
7.57047
 30
0.0
 40
0
 41
0
  0
VERTEX
  8
0
 10
2.96924
 20
7.54085
 30
0.0
 40
0
 41
0
  0
VERTEX
  8
0
 10
2.98942
 20
7.50797
 30
0.0
 40
0
 41
0
  0
VERTEX
  8
0
 10
3.01238
 20
7.47217
 30
0.0
 40
0
 41
0
  0
VERTEX
  8
0
 10
3.02485
 20
7.45193
 30
0.0
 40
0
 41
0
  0
VERTEX
  8
0
 10
3.03207
 20
7.43619
 30
0.0
 40
0
 41
0
  0
VERTEX
  8
0
 10
3.03494
 20
7.42199
 30
0.0
 40
0
 41
0
  0
VERTEX
  8
0
 10
3.03461
 20
7.40625
 30
0.0
 40
0
 41
0
  0
VERTEX
  8
0
 10
3.03244
 20
7.39122
 30
0.0
 40
0
 41
0
  0
VERTEX
  8
0
 10
3.0286
 20
7.38178
 30
0.0
 40
0
 41
0
  0
VERTEX
  8
0
 10
3.02143
 20
7.37586
 30
0.0
 40
0
 41
0
  0
VERTEX
  8
0
 10
3.0095
 20
7.37131
 30
0.0
 40
0
 41
0
  0
VERTEX
  8
0
 10
2.97412
 20
7.37082
 30
0.0
 40
0
 41
0
  0
VERTEX
  8
0
 10
2.9675
 20
7.37278
 30
0.0
 40
0
 41
0
  0
VERTEX
  8
0
 10
2.97683
 20
7.3635
 30
0.0
 40
0
 41
0
  0
VERTEX
  8
0
 10
2.99451
 20
7.35351
 30
0.0
 40
0
 41
0
  0
VERTEX
  8
0
 10
3.01796
 20
7.35374
 30
0.0
 40
0
 41
0
  0
VERTEX
  8
0
 10
3.04606
 20
7.35938
 30
0.0
 40
0
 41
0
  0
VERTEX
  8
0
 10
3.06347
 20
7.36746
 30
0.0
 40
0
 41
0
  0
VERTEX
  8
0
 10
3.07437
 20
7.38151
 30
0.0
 40
0
 41
0
  0
VERTEX
  8
0
 10
3.08311
 20
7.40474
 30
0.0
 40
0
 41
0
  0
VERTEX
  8
0
 10
3.08968
 20
7.42578
 30
0.0
 40
0
 41
0
  0
VERTEX
  8
0
 10
3.09918
 20
7.45594
 30
0.0
 40
0
 41
0
  0
VERTEX
  8
0
 10
3.11029
 20
7.49121
 30
0.0
 40
0
 41
0
  0
VERTEX
  8
0
 10
3.12185
 20
7.5275
 30
0.0
 40
0
 41
0
  0
VERTEX
  8
0
 10
3.13331
 20
7.56581
 30
0.0
 40
0
 41
0
  0
VERTEX
  8
0
 10
3.14438
 20
7.60633
 30
0.0
 40
0
 41
0
  0
VERTEX
  8
0
 10
3.15381
 20
7.64438
 30
0.0
 40
0
 41
0
  0
VERTEX
  8
0
 10
3.16037
 20
7.67497
 30
0.0
 40
0
 41
0
  0
VERTEX
  8
0
 10
3.17188
 20
7.72939
 30
0.0
 40
0
 41
0
  0
VERTEX
  8
0
 10
3.18381
 20
7.77403
 30
0.0
 40
0
 41
0
  0
VERTEX
  8
0
 10
3.19601
 20
7.81278
 30
0.0
 40
0
 41
0
  0
VERTEX
  8
0
 10
3.20844
 20
7.85286
 30
0.0
 40
0
 41
0
  0
VERTEX
  8
0
 10
3.21864
 20
7.884
 30
0.0
 40
0
 41
0
  0
VERTEX
  8
0
 10
3.22586
 20
7.90087
 30
0.0
 40
0
 41
0
  0
VERTEX
  8
0
 10
3.23079
 20
7.91585
 30
0.0
 40
0
 41
0
  0
VERTEX
  8
0
 10
3.23583
 20
7.94206
 30
0.0
 40
0
 41
0
  0
VERTEX
  8
0
 10
3.24306
 20
7.97803
 30
0.0
 40
0
 41
0
  0
VERTEX
  8
0
 10
3.25353
 20
8.01633
 30
0.0
 40
0
 41
0
  0
VERTEX
  8
0
 10
3.26313
 20
8.06299
 30
0.0
 40
0
 41
0
  0
VERTEX
  8
0
 10
3.26676
 20
8.12261
 30
0.0
 40
0
 41
0
  0
VERTEX
  8
0
 10
3.26731
 20
8.17551
 30
0.0
 40
0
 41
0
  0
VERTEX
  8
0
 10
3.26807
 20
8.20947
 30
0.0
 40
0
 41
0
  0
VERTEX
  8
0
 10
3.26611
 20
8.2494
 30
0.0
 40
0
 41
0
  0
VERTEX
  8
0
 10
3.26014
 20
8.30436
 30
0.0
 40
0
 41
0
  0
VERTEX
  8
0
 10
3.25244
 20
8.35558
 30
0.0
 40
0
 41
0
  0
VERTEX
  8
0
 10
3.24556
 20
8.38433
 30
0.0
 40
0
 41
0
  0
VERTEX
  8
0
 10
3.24067
 20
8.39908
 30
0.0
 40
0
 41
0
  0
VERTEX
  8
0
 10
3.23628
 20
8.42003
 30
0.0
 40
0
 41
0
  0
VERTEX
  8
0
 10
3.23014
 20
8.44472
 30
0.0
 40
0
 41
0
  0
VERTEX
  8
0
 10
3.21935
 20
8.47547
 30
0.0
 40
0
 41
0
  0
VERTEX
  8
0
 10
3.20514
 20
8.50976
 30
0.0
 40
0
 41
0
  0
VERTEX
  8
0
 10
3.18881
 20
8.54476
 30
0.0
 40
0
 41
0
  0
VERTEX
  8
0
 10
3.17176
 20
8.57775
 30
0.0
 40
0
 41
0
  0
VERTEX
  8
0
 10
3.15528
 20
8.60612
 30
0.0
 40
0
 41
0
  0
VERTEX
  8
0
 10
3.14068
 20
8.62711
 30
0.0
 40
0
 41
0
  0
VERTEX
  8
0
 10
3.12933
 20
8.63803
 30
0.0
 40
0
 41
0
  0
VERTEX
  8
0
 10
3.11942
 20
8.64057
 30
0.0
 40
0
 41
0
  0
VERTEX
  8
0
 10
3.1269
 20
8.61931
 30
0.0
 40
0
 41
0
  0
VERTEX
  8
0
 10
3.139
 20
8.59207
 30
0.0
 40
0
 41
0
  0
VERTEX
  8
0
 10
3.1531
 20
8.56267
 30
0.0
 40
0
 41
0
  0
VERTEX
  8
0
 10
3.17985
 20
8.49462
 30
0.0
 40
0
 41
0
  0
VERTEX
  8
0
 10
3.20117
 20
8.41357
 30
0.0
 40
0
 41
0
  0
VERTEX
  8
0
 10
3.21408
 20
8.33371
 30
0.0
 40
0
 41
0
  0
VERTEX
  8
0
 10
3.2155
 20
8.26915
 30
0.0
 40
0
 41
0
  0
VERTEX
  8
0
 10
3.21083
 20
8.23454
 30
0.0
 40
0
 41
0
  0
VERTEX
  8
0
 10
3.20594
 20
8.21853
 30
0.0
 40
0
 41
0
  0
VERTEX
  8
0
 10
3.20117
 20
8.22146
 30
0.0
 40
0
 41
0
  0
VERTEX
  8
0
 10
3.19683
 20
8.24376
 30
0.0
 40
0
 41
0
  0
VERTEX
  8
0
 10
3.19151
 20
8.28515
 30
0.0
 40
0
 41
0
  0
VERTEX
  8
0
 10
3.18506
 20
8.33637
 30
0.0
 40
0
 41
0
  0
VERTEX
  8
0
 10
3.17865
 20
8.3834
 30
0.0
 40
0
 41
0
  0
VERTEX
  8
0
 10
3.17367
 20
8.41471
 30
0.0
 40
0
 41
0
  0
VERTEX
  8
0
 10
3.16504
 20
8.44233
 30
0.0
 40
0
 41
0
  0
VERTEX
  8
0
 10
3.14996
 20
8.48068
 30
0.0
 40
0
 41
0
  0
VERTEX
  8
0
 10
3.13325
 20
8.51812
 30
0.0
 40
0
 41
0
  0
VERTEX
  8
0
 10
3.11996
 20
8.54269
 30
0.0
 40
0
 41
0
  0
VERTEX
  8
0
 10
3.11111
 20
8.55007
 30
0.0
 40
0
 41
0
  0
VERTEX
  8
0
 10
3.10622
 20
8.52696
 30
0.0
 40
0
 41
0
  0
VERTEX
  8
0
 10
3.10211
 20
8.49311
 30
0.0
 40
0
 41
0
  0
VERTEX
  8
0
 10
3.09804
 20
8.4529
 30
0.0
 40
0
 41
0
  0
VERTEX
  8
0
 10
3.09201
 20
8.39828
 30
0.0
 40
0
 41
0
  0
VERTEX
  8
0
 10
3.08361
 20
8.32949
 30
0.0
 40
0
 41
0
  0
VERTEX
  8
0
 10
3.07704
 20
8.28326
 30
0.0
 40
0
 41
0
  0
VERTEX
  8
0
 10
3.07004
 20
8.25456
 30
0.0
 40
0
 41
0
  0
VERTEX
  8
0
 10
3.05821
 20
8.23161
 30
0.0
 40
0
 41
0
  0
VERTEX
  8
0
 10
3.03728
 20
8.20264
 30
0.0
 40
0
 41
0
  0
VERTEX
  8
0
 10
3.00749
 20
8.16249
 30
0.0
 40
0
 41
0
  0
VERTEX
  8
0
 10
2.9866
 20
8.13331
 30
0.0
 40
0
 41
0
  0
VERTEX
  8
0
 10
2.9719
 20
8.11193
 30
0.0
 40
0
 41
0
  0
VERTEX
  8
0
 10
2.91906
 20
8.12115
 30
0.0
 40
0
 41
0
  0
VERTEX
  8
0
 10
2.8801
 20
8.13021
 30
0.0
 40
0
 41
0
  0
VERTEX
  8
0
 10
2.86068
 20
8.13906
 30
0.0
 40
0
 41
0
  0
VERTEX
  8
0
 10
2.85622
 20
8.15804
 30
0.0
 40
0
 41
0
  0
VERTEX
  8
0
 10
2.85514
 20
8.18761
 30
0.0
 40
0
 41
0
  0
VERTEX
  8
0
 10
2.85726
 20
8.21571
 30
0.0
 40
0
 41
0
  0
VERTEX
  8
0
 10
2.86231
 20
8.23036
 30
0.0
 40
0
 41
0
  0
VERTEX
  8
0
 10
2.8789
 20
8.23394
 30
0.0
 40
0
 41
0
  0
VERTEX
  8
0
 10
2.90858
 20
8.23594
 30
0.0
 40
0
 41
0
  0
VERTEX
  8
0
 10
2.94749
 20
8.23693
 30
0.0
 40
0
 41
0
  0
VERTEX
  8
0
 10
2.96576
 20
8.27121
 30
0.0
 40
0
 41
0
  0
VERTEX
  8
0
 10
2.99794
 20
8.35237
 30
0.0
 40
0
 41
0
  0
VERTEX
  8
0
 10
3.00299
 20
8.43224
 30
0.0
 40
0
 41
0
  0
VERTEX
  8
0
 10
2.99593
 20
8.51563
 30
0.0
 40
0
 41
0
  0
VERTEX
  8
0
 10
2.99035
 20
8.57178
 30
0.0
 40
0
 41
0
  0
VERTEX
  8
0
 10
2.98551
 20
8.60618
 30
0.0
 40
0
 41
0
  0
VERTEX
  8
0
 10
2.98085
 20
8.62435
 30
0.0
 40
0
 41
0
  0
VERTEX
  8
0
 10
2.97607
 20
8.64453
 30
0.0
 40
0
 41
0
  0
VERTEX
  8
0
 10
2.97439
 20
8.66894
 30
0.0
 40
0
 41
0
  0
VERTEX
  8
0
 10
2.97586
 20
8.68576
 30
0.0
 40
0
 41
0
  0
VERTEX
  8
0
 10
2.98085
 20
8.69407
 30
0.0
 40
0
 41
0
  0
VERTEX
  8
0
 10
2.99143
 20
8.69521
 30
0.0
 40
0
 41
0
  0
VERTEX
  8
0
 10
3.00976
 20
8.69043
 30
0.0
 40
0
 41
0
  0
VERTEX
  8
0
 10
3.02285
 20
8.69075
 30
0.0
 40
0
 41
0
  0
VERTEX
  8
0
 10
3.03267
 20
8.70475
 30
0.0
 40
0
 41
0
  0
VERTEX
  8
0
 10
3.03901
 20
8.73193
 30
0.0
 40
0
 41
0
  0
VERTEX
  8
0
 10
3.04058
 20
8.76828
 30
0.0
 40
0
 41
0
  0
VERTEX
  8
0
 10
3.03754
 20
8.80458
 30
0.0
 40
0
 41
0
  0
VERTEX
  8
0
 10
3.03006
 20
8.83165
 30
0.0
 40
0
 41
0
  0
VERTEX
  8
0
 10
3.02024
 20
8.866
 30
0.0
 40
0
 41
0
  0
VERTEX
  8
0
 10
3.03472
 20
8.88803
 30
0.0
 40
0
 41
0
  0
VERTEX
  8
0
 10
3.05539
 20
8.89681
 30
0.0
 40
0
 41
0
  0
VERTEX
  8
0
 10
3.07731
 20
8.89811
 30
0.0
 40
0
 41
0
  0
VERTEX
  8
0
 10
3.09467
 20
8.89258
 30
0.0
 40
0
 41
0
  0
VERTEX
  8
0
 10
3.10178
 20
8.88081
 30
0.0
 40
0
 41
0
  0
VERTEX
  8
0
 10
3.10818
 20
8.87125
 30
0.0
 40
0
 41
0
  0
VERTEX
  8
0
 10
3.11897
 20
8.85747
 30
0.0
 40
0
 41
0
  0
VERTEX
  8
0
 10
3.12739
 20
8.84511
 30
0.0
 40
0
 41
0
  0
VERTEX
  8
0
 10
3.14725
 20
8.8215
 30
0.0
 40
0
 41
0
  0
VERTEX
  8
0
 10
3.17546
 20
8.79015
 30
0.0
 40
0
 41
0
  0
VERTEX
  8
0
 10
3.2091
 20
8.75439
 30
0.0
 40
0
 41
0
  0
VERTEX
  8
0
 10
3.25319
 20
8.70742
 30
0.0
 40
0
 41
0
  0
VERTEX
  8
0
 10
3.28282
 20
8.67275
 30
0.0
 40
0
 41
0
  0
VERTEX
  8
0
 10
3.30263
 20
8.64421
 30
0.0
 40
0
 41
0
  0
VERTEX
  8
0
 10
3.31754
 20
8.61561
 30
0.0
 40
0
 41
0
  0
VERTEX
  8
0
 10
3.33892
 20
8.56489
 30
0.0
 40
0
 41
0
  0
VERTEX
  8
0
 10
3.35801
 20
8.51172
 30
0.0
 40
0
 41
0
  0
VERTEX
  8
0
 10
3.37358
 20
8.45996
 30
0.0
 40
0
 41
0
  0
VERTEX
  8
0
 10
3.38439
 20
8.41314
 30
0.0
 40
0
 41
0
  0
VERTEX
  8
0
 10
3.38954
 20
8.35026
 30
0.0
 40
0
 41
0
  0
VERTEX
  8
0
 10
3.39318
 20
8.13579
 30
0.0
 40
0
 41
0
  0
VERTEX
  8
0
 10
3.39057
 20
8.04639
 30
0.0
 40
0
 41
0
  0
VERTEX
  8
0
 10
3.38954
 20
8.01758
 30
0.0
 40
0
 41
0
  0
VERTEX
  8
0
 10
3.39068
 20
8.00401
 30
0.0
 40
0
 41
0
  0
VERTEX
  8
0
 10
3.39746
 20
8.00413
 30
0.0
 40
0
 41
0
  0
VERTEX
  8
0
 10
3.4139
 20
8.00635
 30
0.0
 40
0
 41
0
  0
VERTEX
  8
0
 10
3.43756
 20
8.01036
 30
0.0
 40
0
 41
0
  0
VERTEX
  8
0
 10
3.46593
 20
8.01574
 30
0.0
 40
0
 41
0
  0
VERTEX
  8
0
 10
3.50483
 20
8.02285
 30
0.0
 40
0
 41
0
  0
VERTEX
  8
0
 10
3.56185
 20
8.02647
 30
0.0
 40
0
 41
0
  0
VERTEX
  8
0
 10
3.59179
 20
8.02382
 30
0.0
 40
0
 41
0
  0
VERTEX
  8
0
 10
3.62224
 20
8.01975
 30
0.0
 40
0
 41
0
  0
VERTEX
  8
0
 10
3.63981
 20
8.01492
 30
0.0
 40
0
 41
0
  0
VERTEX
  8
0
 10
3.65039
 20
8.00667
 30
0.0
 40
0
 41
0
  0
VERTEX
  8
0
 10
3.65967
 20
7.99224
 30
0.0
 40
0
 41
0
  0
VERTEX
  8
0
 10
3.66829
 20
7.97276
 30
0.0
 40
0
 41
0
  0
VERTEX
  8
0
 10
3.66862
 20
7.96137
 30
0.0
 40
0
 41
0
  0
VERTEX
  8
0
 10
3.65929
 20
7.95893
 30
0.0
 40
0
 41
0
  0
VERTEX
  8
0
 10
3.63807
 20
7.95632
 30
0.0
 40
0
 41
0
  0
VERTEX
  8
0
 10
3.60818
 20
7.954
 30
0.0
 40
0
 41
0
  0
VERTEX
  8
0
 10
3.57269
 20
7.9521
 30
0.0
 40
0
 41
0
  0
VERTEX
  8
0
 10
3.52924
 20
7.94982
 30
0.0
 40
0
 41
0
  0
VERTEX
  8
0
 10
3.49761
 20
7.94667
 30
0.0
 40
0
 41
0
  0
VERTEX
  8
0
 10
3.47542
 20
7.94239
 30
0.0
 40
0
 41
0
  0
VERTEX
  8
0
 10
3.46044
 20
7.93668
 30
0.0
 40
0
 41
0
  0
VERTEX
  8
0
 10
3.428
 20
7.92557
 30
0.0
 40
0
 41
0
  0
VERTEX
  8
0
 10
3.39649
 20
7.93528
 30
0.0
 40
0
 41
0
  0
VERTEX
  8
0
 10
3.38357
 20
7.94206
 30
0.0
 40
0
 41
0
  0
VERTEX
  8
0
 10
3.37625
 20
7.9381
 30
0.0
 40
0
 41
0
  0
VERTEX
  8
0
 10
3.36974
 20
7.91396
 30
0.0
 40
0
 41
0
  0
VERTEX
  8
0
 10
3.35943
 20
7.86003
 30
0.0
 40
0
 41
0
  0
VERTEX
  8
0
 10
3.34597
 20
7.81011
 30
0.0
 40
0
 41
0
  0
VERTEX
  8
0
 10
3.32568
 20
7.77089
 30
0.0
 40
0
 41
0
  0
VERTEX
  8
0
 10
3.29579
 20
7.72444
 30
0.0
 40
0
 41
0
  0
VERTEX
  8
0
 10
3.27729
 20
7.68821
 30
0.0
 40
0
 41
0
  0
VERTEX
  8
0
 10
3.26644
 20
7.65294
 30
0.0
 40
0
 41
0
  0
VERTEX
  8
0
 10
3.2595
 20
7.60943
 30
0.0
 40
0
 41
0
  0
VERTEX
  8
0
 10
3.24653
 20
7.54238
 30
0.0
 40
0
 41
0
  0
VERTEX
  8
0
 10
3.22342
 20
7.47103
 30
0.0
 40
0
 41
0
  0
VERTEX
  8
0
 10
3.20637
 20
7.42899
 30
0.0
 40
0
 41
0
  0
VERTEX
  8
0
 10
3.18994
 20
7.39806
 30
0.0
 40
0
 41
0
  0
VERTEX
  8
0
 10
3.1671
 20
7.36735
 30
0.0
 40
0
 41
0
  0
VERTEX
  8
0
 10
3.13103
 20
7.32601
 30
0.0
 40
0
 41
0
  0
VERTEX
  8
0
 10
3.09526
 20
7.28706
 30
0.0
 40
0
 41
0
  0
VERTEX
  8
0
 10
3.072
 20
7.26486
 30
0.0
 40
0
 41
0
  0
VERTEX
  8
0
 10
3.05469
 20
7.25424
 30
0.0
 40
0
 41
0
  0
VERTEX
  8
0
 10
3.03678
 20
7.24978
 30
0.0
 40
0
 41
0
  0
VERTEX
  8
0
 10
2.98367
 20
7.25504
 30
0.0
 40
0
 41
0
  0
VERTEX
  8
0
 10
2.95204
 20
7.27572
 30
0.0
 40
0
 41
0
  0
VERTEX
  8
0
 10
2.91411
 20
7.30957
 30
0.0
 40
0
 41
0
  0
VERTEX
  8
0
 10
2.8814
 20
7.34517
 30
0.0
 40
0
 41
0
  0
VERTEX
  8
0
 10
2.86561
 20
7.37115
 30
0.0
 40
0
 41
0
  0
VERTEX
  8
0
 10
2.85835
 20
7.40543
 30
0.0
 40
0
 41
0
  0
VERTEX
  8
0
 10
2.84771
 20
7.4254
 30
0.0
 40
0
 41
0
  0
VERTEX
  8
0
 10
2.82704
 20
7.45171
 30
0.0
 40
0
 41
0
  0
VERTEX
  8
0
 10
2.79915
 20
7.48258
 30
0.0
 40
0
 41
0
  0
VERTEX
  8
0
 10
2.80311
 20
7.45856
 30
0.0
 40
0
 41
0
  0
VERTEX
  8
0
 10
2.80994
 20
7.40771
 30
0.0
 40
0
 41
0
  0
VERTEX
  8
0
 10
2.81185
 20
7.36583
 30
0.0
 40
0
 41
0
  0
VERTEX
  8
0
 10
2.8086
 20
7.32742
 30
0.0
 40
0
 41
0
  0
VERTEX
  8
0
 10
2.80018
 20
7.28711
 30
0.0
 40
0
 41
0
  0
VERTEX
  8
0
 10
2.78575
 20
7.23893
 30
0.0
 40
0
 41
0
  0
VERTEX
  8
0
 10
2.77214
 20
7.20486
 30
0.0
 40
0
 41
0
  0
VERTEX
  8
0
 10
2.76036
 20
7.17746
 30
0.0
 40
0
 41
0
  0
VERTEX
  8
0
 10
2.74946
 20
7.14225
 30
0.0
 40
0
 41
0
  0
VERTEX
  8
0
 10
2.74137
 20
7.10672
 30
0.0
 40
0
 41
0
  0
VERTEX
  8
0
 10
2.73817
 20
7.07824
 30
0.0
 40
0
 41
0
  0
VERTEX
  8
0
 10
2.72368
 20
7.02696
 30
0.0
 40
0
 41
0
  0
VERTEX
  8
0
 10
2.68679
 20
6.97244
 30
0.0
 40
0
 41
0
  0
VERTEX
  8
0
 10
2.6569
 20
6.94754
 30
0.0
 40
0
 41
0
  0
VERTEX
  8
0
 10
2.62864
 20
6.94911
 30
0.0
 40
0
 41
0
  0
SEQEND
 8
0
  0
POLYLINE
  8
0
 62
     0
 66
     1
 10
0
 20
0
 30
0.0
 70
     1
 40
0
 41
0
  0
VERTEX
  8
0
 10
5.95057
 20
6.97342
 30
0.0
 40
0
 41
0
  0
VERTEX
  8
0
 10
5.93088
 20
7.00413
 30
0.0
 40
0
 41
0
  0
VERTEX
  8
0
 10
5.90549
 20
7.05219
 30
0.0
 40
0
 41
0
  0
VERTEX
  8
0
 10
5.88217
 20
7.102
 30
0.0
 40
0
 41
0
  0
VERTEX
  8
0
 10
5.86865
 20
7.13797
 30
0.0
 40
0
 41
0
  0
VERTEX
  8
0
 10
5.86871
 20
7.15278
 30
0.0
 40
0
 41
0
  0
VERTEX
  8
0
 10
5.8859
 20
7.15831
 30
0.0
 40
0
 41
0
  0
VERTEX
  8
0
 10
5.89806
 20
7.15896
 30
0.0
 40
0
 41
0
  0
VERTEX
  8
0
 10
5.9081
 20
7.15565
 30
0.0
 40
0
 41
0
  0
VERTEX
  8
0
 10
5.91868
 20
7.14675
 30
0.0
 40
0
 41
0
  0
VERTEX
  8
0
 10
5.93272
 20
7.13064
 30
0.0
 40
0
 41
0
  0
VERTEX
  8
0
 10
5.95524
 20
7.1071
 30
0.0
 40
0
 41
0
  0
VERTEX
  8
0
 10
5.97781
 20
7.0925
 30
0.0
 40
0
 41
0
  0
VERTEX
  8
0
 10
6.00256
 20
7.08594
 30
0.0
 40
0
 41
0
  0
VERTEX
  8
0
 10
6.03174
 20
7.08637
 30
0.0
 40
0
 41
0
  0
VERTEX
  8
0
 10
6.06429
 20
7.09006
 30
0.0
 40
0
 41
0
  0
VERTEX
  8
0
 10
6.06413
 20
7.05317
 30
0.0
 40
0
 41
0
  0
VERTEX
  8
0
 10
6.06082
 20
7.02094
 30
0.0
 40
0
 41
0
  0
VERTEX
  8
0
 10
6.05057
 20
6.99914
 30
0.0
 40
0
 41
0
  0
VERTEX
  8
0
 10
6.04101
 20
6.98449
 30
0.0
 40
0
 41
0
  0
VERTEX
  8
0
 10
6.037
 20
6.97319
 30
0.0
 40
0
 41
0
  0
VERTEX
  8
0
 10
6.03217
 20
6.9655
 30
0.0
 40
0
 41
0
  0
VERTEX
  8
0
 10
6.01997
 20
6.95839
 30
0.0
 40
0
 41
0
  0
VERTEX
  8
0
 10
6.00342
 20
6.95318
 30
0.0
 40
0
 41
0
  0
VERTEX
  8
0
 10
5.98557
 20
6.95111
 30
0.0
 40
0
 41
0
  0
VERTEX
  8
0
 10
5.96869
 20
6.95725
 30
0.0
 40
0
 41
0
  0
VERTEX
  8
0
 10
5.95057
 20
6.97342
 30
0.0
 40
0
 41
0
  0
SEQEND
 8
0
  0
POLYLINE
  8
0
 62
     0
 66
     1
 10
0
 20
0
 30
0.0
 70
     1
 40
0
 41
0
  0
VERTEX
  8
0
 10
4.24018
 20
7.01454
 30
0.0
 40
0
 41
0
  0
VERTEX
  8
0
 10
4.24501
 20
7.05328
 30
0.0
 40
0
 41
0
  0
VERTEX
  8
0
 10
4.25667
 20
7.10542
 30
0.0
 40
0
 41
0
  0
VERTEX
  8
0
 10
4.26525
 20
7.14128
 30
0.0
 40
0
 41
0
  0
VERTEX
  8
0
 10
4.26997
 20
7.17389
 30
0.0
 40
0
 41
0
  0
VERTEX
  8
0
 10
4.2716
 20
7.21311
 30
0.0
 40
0
 41
0
  0
VERTEX
  8
0
 10
4.27106
 20
7.26867
 30
0.0
 40
0
 41
0
  0
VERTEX
  8
0
 10
4.26992
 20
7.30849
 30
0.0
 40
0
 41
0
  0
VERTEX
  8
0
 10
4.26665
 20
7.36481
 30
0.0
 40
0
 41
0
  0
VERTEX
  8
0
 10
4.26486
 20
7.3744
 30
0.0
 40
0
 41
0
  0
VERTEX
  8
0
 10
4.26101
 20
7.38683
 30
0.0
 40
0
 41
0
  0
VERTEX
  8
0
 10
4.26118
 20
7.40836
 30
0.0
 40
0
 41
0
  0
VERTEX
  8
0
 10
4.26486
 20
7.43332
 30
0.0
 40
0
 41
0
  0
VERTEX
  8
0
 10
4.27165
 20
7.456
 30
0.0
 40
0
 41
0
  0
VERTEX
  8
0
 10
4.28956
 20
7.49718
 30
0.0
 40
0
 41
0
  0
VERTEX
  8
0
 10
4.30935
 20
7.53847
 30
0.0
 40
0
 41
0
  0
VERTEX
  8
0
 10
4.32921
 20
7.57628
 30
0.0
 40
0
 41
0
  0
VERTEX
  8
0
 10
4.34733
 20
7.60693
 30
0.0
 40
0
 41
0
  0
VERTEX
  8
0
 10
4.35861
 20
7.62603
 30
0.0
 40
0
 41
0
  0
VERTEX
  8
0
 10
4.37267
 20
7.65175
 30
0.0
 40
0
 41
0
  0
VERTEX
  8
0
 10
4.38769
 20
7.68083
 30
0.0
 40
0
 41
0
  0
VERTEX
  8
0
 10
4.40192
 20
7.70985
 30
0.0
 40
0
 41
0
  0
VERTEX
  8
0
 10
4.41585
 20
7.73828
 30
0.0
 40
0
 41
0
  0
VERTEX
  8
0
 10
4.43024
 20
7.76568
 30
0.0
 40
0
 41
0
  0
VERTEX
  8
0
 10
4.44336
 20
7.78896
 30
0.0
 40
0
 41
0
  0
VERTEX
  8
0
 10
4.45356
 20
7.80496
 30
0.0
 40
0
 41
0
  0
VERTEX
  8
0
 10
4.47504
 20
7.84403
 30
0.0
 40
0
 41
0
  0
VERTEX
  8
0
 10
4.48996
 20
7.89128
 30
0.0
 40
0
 41
0
  0
VERTEX
  8
0
 10
4.49794
 20
7.9451
 30
0.0
 40
0
 41
0
  0
VERTEX
  8
0
 10
4.49858
 20
8.00375
 30
0.0
 40
0
 41
0
  0
VERTEX
  8
0
 10
4.49451
 20
8.05322
 30
0.0
 40
0
 41
0
  0
VERTEX
  8
0
 10
4.48583
 20
8.09386
 30
0.0
 40
0
 41
0
  0
VERTEX
  8
0
 10
4.46886
 20
8.13813
 30
0.0
 40
0
 41
0
  0
VERTEX
  8
0
 10
4.43972
 20
8.19851
 30
0.0
 40
0
 41
0
  0
VERTEX
  8
0
 10
4.41222
 20
8.24929
 30
0.0
 40
0
 41
0
  0
VERTEX
  8
0
 10
4.37625
 20
8.30767
 30
0.0
 40
0
 41
0
  0
VERTEX
  8
0
 10
4.32633
 20
8.38194
 30
0.0
 40
0
 41
0
  0
VERTEX
  8
0
 10
4.25717
 20
8.48036
 30
0.0
 40
0
 41
0
  0
VERTEX
  8
0
 10
4.23687
 20
8.50917
 30
0.0
 40
0
 41
0
  0
VERTEX
  8
0
 10
4.21961
 20
8.53424
 30
0.0
 40
0
 41
0
  0
VERTEX
  8
0
 10
4.20719
 20
8.553
 30
0.0
 40
0
 41
0
  0
VERTEX
  8
0
 10
4.20139
 20
8.56267
 30
0.0
 40
0
 41
0
  0
VERTEX
  8
0
 10
4.19189
 20
8.579
 30
0.0
 40
0
 41
0
  0
VERTEX
  8
0
 10
4.17546
 20
8.60379
 30
0.0
 40
0
 41
0
  0
VERTEX
  8
0
 10
4.15799
 20
8.63167
 30
0.0
 40
0
 41
0
  0
VERTEX
  8
0
 10
4.14611
 20
8.65522
 30
0.0
 40
0
 41
0
  0
VERTEX
  8
0
 10
4.12349
 20
8.71149
 30
0.0
 40
0
 41
0
  0
VERTEX
  8
0
 10
4.0931
 20
8.78407
 30
0.0
 40
0
 41
0
  0
VERTEX
  8
0
 10
4.06049
 20
8.86003
 30
0.0
 40
0
 41
0
  0
VERTEX
  8
0
 10
4.03119
 20
8.92611
 30
0.0
 40
0
 41
0
  0
VERTEX
  8
0
 10
3.99115
 20
9.0179
 30
0.0
 40
0
 41
0
  0
VERTEX
  8
0
 10
3.96235
 20
9.09369
 30
0.0
 40
0
 41
0
  0
VERTEX
  8
0
 10
3.94222
 20
9.16075
 30
0.0
 40
0
 41
0
  0
VERTEX
  8
0
 10
3.92833
 20
9.22629
 30
0.0
 40
0
 41
0
  0
VERTEX
  8
0
 10
3.9209
 20
9.25678
 30
0.0
 40
0
 41
0
  0
VERTEX
  8
0
 10
3.90842
 20
9.29833
 30
0.0
 40
0
 41
0
  0
VERTEX
  8
0
 10
3.89583
 20
9.34597
 30
0.0
 40
0
 41
0
  0
VERTEX
  8
0
 10
3.88807
 20
9.3909
 30
0.0
 40
0
 41
0
  0
VERTEX
  8
0
 10
3.87711
 20
9.44086
 30
0.0
 40
0
 41
0
  0
VERTEX
  8
0
 10
3.85351
 20
9.50407
 30
0.0
 40
0
 41
0
  0
VERTEX
  8
0
 10
3.84056
 20
9.53538
 30
0.0
 40
0
 41
0
  0
VERTEX
  8
0
 10
3.82758
 20
9.56868
 30
0.0
 40
0
 41
0
  0
VERTEX
  8
0
 10
3.81608
 20
9.6001
 30
0.0
 40
0
 41
0
  0
VERTEX
  8
0
 10
3.80767
 20
9.6256
 30
0.0
 40
0
 41
0
  0
VERTEX
  8
0
 10
3.7889
 20
9.67964
 30
0.0
 40
0
 41
0
  0
VERTEX
  8
0
 10
3.76579
 20
9.73725
 30
0.0
 40
0
 41
0
  0
VERTEX
  8
0
 10
3.74604
 20
9.79064
 30
0.0
 40
0
 41
0
  0
VERTEX
  8
0
 10
3.73529
 20
9.83436
 30
0.0
 40
0
 41
0
  0
VERTEX
  8
0
 10
3.73346
 20
9.86692
 30
0.0
 40
0
 41
0
  0
VERTEX
  8
0
 10
3.73562
 20
9.89442
 30
0.0
 40
0
 41
0
  0
VERTEX
  8
0
 10
3.74121
 20
9.91342
 30
0.0
 40
0
 41
0
  0
VERTEX
  8
0
 10
3.74968
 20
9.92046
 30
0.0
 40
0
 41
0
  0
VERTEX
  8
0
 10
3.75765
 20
9.91812
 30
0.0
 40
0
 41
0
  0
VERTEX
  8
0
 10
3.76639
 20
9.91049
 30
0.0
 40
0
 41
0
  0
VERTEX
  8
0
 10
3.77626
 20
9.8966
 30
0.0
 40
0
 41
0
  0
VERTEX
  8
0
 10
3.78776
 20
9.87571
 30
0.0
 40
0
 41
0
  0
VERTEX
  8
0
 10
3.80126
 20
9.84694
 30
0.0
 40
0
 41
0
  0
VERTEX
  8
0
 10
3.81728
 20
9.80935
 30
0.0
 40
0
 41
0
  0
VERTEX
  8
0
 10
3.83615
 20
9.76215
 30
0.0
 40
0
 41
0
  0
VERTEX
  8
0
 10
3.85846
 20
9.70443
 30
0.0
 40
0
 41
0
  0
VERTEX
  8
0
 10
3.87071
 20
9.6735
 30
0.0
 40
0
 41
0
  0
VERTEX
  8
0
 10
3.88667
 20
9.63476
 30
0.0
 40
0
 41
0
  0
VERTEX
  8
0
 10
3.90424
 20
9.59326
 30
0.0
 40
0
 41
0
  0
VERTEX
  8
0
 10
3.9215
 20
9.55388
 30
0.0
 40
0
 41
0
  0
VERTEX
  8
0
 10
3.94075
 20
9.50851
 30
0.0
 40
0
 41
0
  0
VERTEX
  8
0
 10
3.95481
 20
9.47017
 30
0.0
 40
0
 41
0
  0
VERTEX
  8
0
 10
3.96479
 20
9.43511
 30
0.0
 40
0
 41
0
  0
VERTEX
  8
0
 10
3.972
 20
9.39958
 30
0.0
 40
0
 41
0
  0
VERTEX
  8
0
 10
3.98074
 20
9.35331
 30
0.0
 40
0
 41
0
  0
VERTEX
  8
0
 10
3.98643
 20
9.33382
 30
0.0
 40
0
 41
0
  0
VERTEX
  8
0
 10
3.99713
 20
9.329
 30
0.0
 40
0
 41
0
  0
VERTEX
  8
0
 10
4.01807
 20
9.31765
 30
0.0
 40
0
 41
0
  0
VERTEX
  8
0
 10
4.04178
 20
9.30003
 30
0.0
 40
0
 41
0
  0
VERTEX
  8
0
 10
4.05746
 20
9.27701
 30
0.0
 40
0
 41
0
  0
VERTEX
  8
0
 10
4.06614
 20
9.24625
 30
0.0
 40
0
 41
0
  0
VERTEX
  8
0
 10
4.06896
 20
9.20529
 30
0.0
 40
0
 41
0
  0
VERTEX
  8
0
 10
4.07178
 20
9.16499
 30
0.0
 40
0
 41
0
  0
VERTEX
  8
0
 10
4.07867
 20
9.13867
 30
0.0
 40
0
 41
0
  0
VERTEX
  8
0
 10
4.08817
 20
9.12158
 30
0.0
 40
0
 41
0
  0
VERTEX
  8
0
 10
4.09278
 20
9.14214
 30
0.0
 40
0
 41
0
  0
VERTEX
  8
0
 10
4.09631
 20
9.15776
 30
0.0
 40
0
 41
0
  0
VERTEX
  8
0
 10
4.09847
 20
9.1665
 30
0.0
 40
0
 41
0
  0
VERTEX
  8
0
 10
4.10753
 20
9.16749
 30
0.0
 40
0
 41
0
  0
VERTEX
  8
0
 10
4.12782
 20
9.16456
 30
0.0
 40
0
 41
0
  0
VERTEX
  8
0
 10
4.14437
 20
9.16015
 30
0.0
 40
0
 41
0
  0
VERTEX
  8
0
 10
4.15608
 20
9.15136
 30
0.0
 40
0
 41
0
  0
VERTEX
  8
0
 10
4.16781
 20
9.13254
 30
0.0
 40
0
 41
0
  0
VERTEX
  8
0
 10
4.1844
 20
9.09788
 30
0.0
 40
0
 41
0
  0
VERTEX
  8
0
 10
4.19536
 20
9.07374
 30
0.0
 40
0
 41
0
  0
VERTEX
  8
0
 10
4.20437
 20
9.0529
 30
0.0
 40
0
 41
0
  0
VERTEX
  8
0
 10
4.21044
 20
9.03776
 30
0.0
 40
0
 41
0
  0
VERTEX
  8
0
 10
4.21272
 20
9.03039
 30
0.0
 40
0
 41
0
  0
VERTEX
  8
0
 10
4.21565
 20
9.01785
 30
0.0
 40
0
 41
0
  0
VERTEX
  8
0
 10
4.22385
 20
8.99664
 30
0.0
 40
0
 41
0
  0
VERTEX
  8
0
 10
4.236
 20
8.96903
 30
0.0
 40
0
 41
0
  0
VERTEX
  8
0
 10
4.25114
 20
8.93739
 30
0.0
 40
0
 41
0
  0
VERTEX
  8
0
 10
4.26796
 20
8.90403
 30
0.0
 40
0
 41
0
  0
VERTEX
  8
0
 10
4.28543
 20
8.87131
 30
0.0
 40
0
 41
0
  0
VERTEX
  8
0
 10
4.30236
 20
8.84147
 30
0.0
 40
0
 41
0
  0
VERTEX
  8
0
 10
4.31765
 20
8.81689
 30
0.0
 40
0
 41
0
  0
VERTEX
  8
0
 10
4.33626
 20
8.78863
 30
0.0
 40
0
 41
0
  0
VERTEX
  8
0
 10
4.35482
 20
8.76025
 30
0.0
 40
0
 41
0
  0
VERTEX
  8
0
 10
4.37115
 20
8.73503
 30
0.0
 40
0
 41
0
  0
VERTEX
  8
0
 10
4.38308
 20
8.71619
 30
0.0
 40
0
 41
0
  0
VERTEX
  8
0
 10
4.40246
 20
8.68793
 30
0.0
 40
0
 41
0
  0
VERTEX
  8
0
 10
4.41851
 20
8.66889
 30
0.0
 40
0
 41
0
  0
VERTEX
  8
0
 10
4.4285
 20
8.65375
 30
0.0
 40
0
 41
0
  0
VERTEX
  8
0
 10
4.43218
 20
8.63374
 30
0.0
 40
0
 41
0
  0
VERTEX
  8
0
 10
4.42882
 20
8.61453
 30
0.0
 40
0
 41
0
  0
VERTEX
  8
0
 10
4.41504
 20
8.60661
 30
0.0
 40
0
 41
0
  0
VERTEX
  8
0
 10
4.40289
 20
8.60172
 30
0.0
 40
0
 41
0
  0
VERTEX
  8
0
 10
4.39789
 20
8.59603
 30
0.0
 40
0
 41
0
  0
VERTEX
  8
0
 10
4.4036
 20
8.5816
 30
0.0
 40
0
 41
0
  0
VERTEX
  8
0
 10
4.41797
 20
8.56033
 30
0.0
 40
0
 41
0
  0
VERTEX
  8
0
 10
4.43668
 20
8.53787
 30
0.0
 40
0
 41
0
  0
VERTEX
  8
0
 10
4.45557
 20
8.51986
 30
0.0
 40
0
 41
0
  0
VERTEX
  8
0
 10
4.46826
 20
8.50722
 30
0.0
 40
0
 41
0
  0
VERTEX
  8
0
 10
4.48551
 20
8.48649
 30
0.0
 40
0
 41
0
  0
VERTEX
  8
0
 10
4.50489
 20
8.46072
 30
0.0
 40
0
 41
0
  0
VERTEX
  8
0
 10
4.52425
 20
8.43261
 30
0.0
 40
0
 41
0
  0
VERTEX
  8
0
 10
4.58882
 20
8.34375
 30
0.0
 40
0
 41
0
  0
VERTEX
  8
0
 10
4.65343
 20
8.27289
 30
0.0
 40
0
 41
0
  0
VERTEX
  8
0
 10
4.71631
 20
8.22179
 30
0.0
 40
0
 41
0
  0
VERTEX
  8
0
 10
4.77561
 20
8.19217
 30
0.0
 40
0
 41
0
  0
VERTEX
  8
0
 10
4.80214
 20
8.18451
 30
0.0
 40
0
 41
0
  0
VERTEX
  8
0
 10
4.82476
 20
8.18061
 30
0.0
 40
0
 41
0
  0
VERTEX
  8
0
 10
4.84924
 20
8.1799
 30
0.0
 40
0
 41
0
  0
VERTEX
  8
0
 10
4.88118
 20
8.18186
 30
0.0
 40
0
 41
0
  0
VERTEX
  8
0
 10
4.93625
 20
8.18821
 30
0.0
 40
0
 41
0
  0
VERTEX
  8
0
 10
4.97706
 20
8.19706
 30
0.0
 40
0
 41
0
  0
VERTEX
  8
0
 10
5.00597
 20
8.20931
 30
0.0
 40
0
 41
0
  0
VERTEX
  8
0
 10
5.02556
 20
8.22558
 30
0.0
 40
0
 41
0
  0
VERTEX
  8
0
 10
5.04476
 20
8.24457
 30
0.0
 40
0
 41
0
  0
VERTEX
  8
0
 10
5.06646
 20
8.26085
 30
0.0
 40
0
 41
0
  0
VERTEX
  8
0
 10
5.0835
 20
8.27399
 30
0.0
 40
0
 41
0
  0
VERTEX
  8
0
 10
5.09353
 20
8.28999
 30
0.0
 40
0
 41
0
  0
VERTEX
  8
0
 10
5.09804
 20
8.31287
 30
0.0
 40
0
 41
0
  0
VERTEX
  8
0
 10
5.09864
 20
8.34662
 30
0.0
 40
0
 41
0
  0
VERTEX
  8
0
 10
5.10081
 20
8.39079
 30
0.0
 40
0
 41
0
  0
VERTEX
  8
0
 10
5.11035
 20
8.42969
 30
0.0
 40
0
 41
0
  0
VERTEX
  8
0
 10
5.12815
 20
8.46599
 30
0.0
 40
0
 41
0
  0
VERTEX
  8
0
 10
5.15517
 20
8.50228
 30
0.0
 40
0
 41
0
  0
VERTEX
  8
0
 10
5.19412
 20
8.54769
 30
0.0
 40
0
 41
0
  0
VERTEX
  8
0
 10
5.23568
 20
8.59619
 30
0.0
 40
0
 41
0
  0
VERTEX
  8
0
 10
5.27132
 20
8.63281
 30
0.0
 40
0
 41
0
  0
VERTEX
  8
0
 10
5.30789
 20
8.66217
 30
0.0
 40
0
 41
0
  0
VERTEX
  8
0
 10
5.33979
 20
8.68039
 30
0.0
 40
0
 41
0
  0
VERTEX
  8
0
 10
5.36143
 20
8.6836
 30
0.0
 40
0
 41
0
  0
VERTEX
  8
0
 10
5.36897
 20
8.6741
 30
0.0
 40
0
 41
0
  0
VERTEX
  8
0
 10
5.37169
 20
8.65451
 30
0.0
 40
0
 41
0
  0
VERTEX
  8
0
 10
5.37007
 20
8.64008
 30
0.0
 40
0
 41
0
  0
VERTEX
  8
0
 10
5.36426
 20
8.62528
 30
0.0
 40
0
 41
0
  0
VERTEX
  8
0
 10
5.35275
 20
8.60736
 30
0.0
 40
0
 41
0
  0
VERTEX
  8
0
 10
5.33415
 20
8.5835
 30
0.0
 40
0
 41
0
  0
VERTEX
  8
0
 10
5.29574
 20
8.53993
 30
0.0
 40
0
 41
0
  0
VERTEX
  8
0
 10
5.25613
 20
8.49957
 30
0.0
 40
0
 41
0
  0
VERTEX
  8
0
 10
5.22689
 20
8.46772
 30
0.0
 40
0
 41
0
  0
VERTEX
  8
0
 10
5.20562
 20
8.43306
 30
0.0
 40
0
 41
0
  0
VERTEX
  8
0
 10
5.19049
 20
8.39171
 30
0.0
 40
0
 41
0
  0
VERTEX
  8
0
 10
5.17964
 20
8.33979
 30
0.0
 40
0
 41
0
  0
VERTEX
  8
0
 10
5.17008
 20
8.29465
 30
0.0
 40
0
 41
0
  0
VERTEX
  8
0
 10
5.15728
 20
8.25564
 30
0.0
 40
0
 41
0
  0
VERTEX
  8
0
 10
5.14225
 20
8.22542
 30
0.0
 40
0
 41
0
  0
VERTEX
  8
0
 10
5.12614
 20
8.20654
 30
0.0
 40
0
 41
0
  0
VERTEX
  8
0
 10
5.11301
 20
8.1951
 30
0.0
 40
0
 41
0
  0
VERTEX
  8
0
 10
5.12136
 20
8.19276
 30
0.0
 40
0
 41
0
  0
VERTEX
  8
0
 10
5.13792
 20
8.19971
 30
0.0
 40
0
 41
0
  0
VERTEX
  8
0
 10
5.15847
 20
8.21631
 30
0.0
 40
0
 41
0
  0
VERTEX
  8
0
 10
5.21224
 20
8.24951
 30
0.0
 40
0
 41
0
  0
VERTEX
  8
0
 10
5.28386
 20
8.2609
 30
0.0
 40
0
 41
0
  0
VERTEX
  8
0
 10
5.32254
 20
8.266
 30
0.0
 40
0
 41
0
  0
VERTEX
  8
0
 10
5.36051
 20
8.28022
 30
0.0
 40
0
 41
0
  0
VERTEX
  8
0
 10
5.39447
 20
8.30192
 30
0.0
 40
0
 41
0
  0
VERTEX
  8
0
 10
5.42128
 20
8.32949
 30
0.0
 40
0
 41
0
  0
VERTEX
  8
0
 10
5.43332
 20
8.34403
 30
0.0
 40
0
 41
0
  0
VERTEX
  8
0
 10
5.4464
 20
8.35444
 30
0.0
 40
0
 41
0
  0
VERTEX
  8
0
 10
5.46365
 20
8.36285
 30
0.0
 40
0
 41
0
  0
VERTEX
  8
0
 10
5.48839
 20
8.37115
 30
0.0
 40
0
 41
0
  0
VERTEX
  8
0
 10
5.52903
 20
8.38194
 30
0.0
 40
0
 41
0
  0
VERTEX
  8
0
 10
5.553
 20
8.38265
 30
0.0
 40
0
 41
0
  0
VERTEX
  8
0
 10
5.56489
 20
8.37224
 30
0.0
 40
0
 41
0
  0
VERTEX
  8
0
 10
5.56917
 20
8.34933
 30
0.0
 40
0
 41
0
  0
VERTEX
  8
0
 10
5.57124
 20
8.31776
 30
0.0
 40
0
 41
0
  0
VERTEX
  8
0
 10
5.54042
 20
8.30914
 30
0.0
 40
0
 41
0
  0
VERTEX
  8
0
 10
5.50831
 20
8.29432
 30
0.0
 40
0
 41
0
  0
VERTEX
  8
0
 10
5.47433
 20
8.2704
 30
0.0
 40
0
 41
0
  0
VERTEX
  8
0
 10
5.44407
 20
8.24864
 30
0.0
 40
0
 41
0
  0
VERTEX
  8
0
 10
5.42204
 20
8.24035
 30
0.0
 40
0
 41
0
  0
VERTEX
  8
0
 10
5.39942
 20
8.23107
 30
0.0
 40
0
 41
0
  0
VERTEX
  8
0
 10
5.366
 20
8.20344
 30
0.0
 40
0
 41
0
  0
VERTEX
  8
0
 10
5.33393
 20
8.17617
 30
0.0
 40
0
 41
0
  0
VERTEX
  8
0
 10
5.30236
 20
8.155
 30
0.0
 40
0
 41
0
  0
VERTEX
  8
0
 10
5.27289
 20
8.1409
 30
0.0
 40
0
 41
0
  0
VERTEX
  8
0
 10
5.24718
 20
8.13476
 30
0.0
 40
0
 41
0
  0
VERTEX
  8
0
 10
5.23031
 20
8.12967
 30
0.0
 40
0
 41
0
  0
VERTEX
  8
0
 10
5.21772
 20
8.11947
 30
0.0
 40
0
 41
0
  0
VERTEX
  8
0
 10
5.19706
 20
8.10389
 30
0.0
 40
0
 41
0
  0
VERTEX
  8
0
 10
5.16374
 20
8.09196
 30
0.0
 40
0
 41
0
  0
VERTEX
  8
0
 10
5.12522
 20
8.08561
 30
0.0
 40
0
 41
0
  0
VERTEX
  8
0
 10
5.08903
 20
8.08675
 30
0.0
 40
0
 41
0
  0
VERTEX
  8
0
 10
5.06304
 20
8.09364
 30
0.0
 40
0
 41
0
  0
VERTEX
  8
0
 10
5.05192
 20
8.10146
 30
0.0
 40
0
 41
0
  0
VERTEX
  8
0
 10
5.05024
 20
8.12386
 30
0.0
 40
0
 41
0
  0
VERTEX
  8
0
 10
5.04921
 20
8.1314
 30
0.0
 40
0
 41
0
  0
VERTEX
  8
0
 10
5.046
 20
8.13368
 30
0.0
 40
0
 41
0
  0
VERTEX
  8
0
 10
5.03825
 20
8.13043
 30
0.0
 40
0
 41
0
  0
VERTEX
  8
0
 10
5.02365
 20
8.12153
 30
0.0
 40
0
 41
0
  0
VERTEX
  8
0
 10
4.98486
 20
8.10314
 30
0.0
 40
0
 41
0
  0
VERTEX
  8
0
 10
4.9369
 20
8.09071
 30
0.0
 40
0
 41
0
  0
VERTEX
  8
0
 10
4.87983
 20
8.08442
 30
0.0
 40
0
 41
0
  0
VERTEX
  8
0
 10
4.81381
 20
8.0841
 30
0.0
 40
0
 41
0
  0
VERTEX
  8
0
 10
4.73318
 20
8.09218
 30
0.0
 40
0
 41
0
  0
VERTEX
  8
0
 10
4.67447
 20
8.11708
 30
0.0
 40
0
 41
0
  0
VERTEX
  8
0
 10
4.61996
 20
8.17128
 30
0.0
 40
0
 41
0
  0
VERTEX
  8
0
 10
4.55176
 20
8.26708
 30
0.0
 40
0
 41
0
  0
VERTEX
  8
0
 10
4.52078
 20
8.3125
 30
0.0
 40
0
 41
0
  0
VERTEX
  8
0
 10
4.48953
 20
8.35699
 30
0.0
 40
0
 41
0
  0
VERTEX
  8
0
 10
4.46158
 20
8.39546
 30
0.0
 40
0
 41
0
  0
VERTEX
  8
0
 10
4.44069
 20
8.42275
 30
0.0
 40
0
 41
0
  0
VERTEX
  8
0
 10
4.38938
 20
8.48497
 30
0.0
 40
0
 41
0
  0
VERTEX
  8
0
 10
4.34358
 20
8.53814
 30
0.0
 40
0
 41
0
  0
VERTEX
  8
0
 10
4.30817
 20
8.57682
 30
0.0
 40
0
 41
0
  0
VERTEX
  8
0
 10
4.28808
 20
8.59543
 30
0.0
 40
0
 41
0
  0
VERTEX
  8
0
 10
4.27826
 20
8.59961
 30
0.0
 40
0
 41
0
  0
VERTEX
  8
0
 10
4.28965
 20
8.581
 30
0.0
 40
0
 41
0
  0
VERTEX
  8
0
 10
4.40793
 20
8.40429
 30
0.0
 40
0
 41
0
  0
VERTEX
  8
0
 10
4.49701
 20
8.26833
 30
0.0
 40
0
 41
0
  0
VERTEX
  8
0
 10
4.55544
 20
8.1754
 30
0.0
 40
0
 41
0
  0
VERTEX
  8
0
 10
4.58192
 20
8.1275
 30
0.0
 40
0
 41
0
  0
VERTEX
  8
0
 10
4.59446
 20
8.08419
 30
0.0
 40
0
 41
0
  0
VERTEX
  8
0
 10
4.60172
 20
8.03412
 30
0.0
 40
0
 41
0
  0
VERTEX
  8
0
 10
4.60286
 20
7.98676
 30
0.0
 40
0
 41
0
  0
VERTEX
  8
0
 10
4.59717
 20
7.95133
 30
0.0
 40
0
 41
0
  0
VERTEX
  8
0
 10
4.58649
 20
7.91862
 30
0.0
 40
0
 41
0
  0
VERTEX
  8
0
 10
4.57243
 20
7.87224
 30
0.0
 40
0
 41
0
  0
VERTEX
  8
0
 10
4.55208
 20
7.81874
 30
0.0
 40
0
 41
0
  0
VERTEX
  8
0
 10
4.52576
 20
7.76938
 30
0.0
 40
0
 41
0
  0
VERTEX
  8
0
 10
4.51133
 20
7.74414
 30
0.0
 40
0
 41
0
  0
VERTEX
  8
0
 10
4.49533
 20
7.7111
 30
0.0
 40
0
 41
0
  0
VERTEX
  8
0
 10
4.47922
 20
7.67367
 30
0.0
 40
0
 41
0
  0
VERTEX
  8
0
 10
4.46451
 20
7.63514
 30
0.0
 40
0
 41
0
  0
VERTEX
  8
0
 10
4.4476
 20
7.59006
 30
0.0
 40
0
 41
0
  0
VERTEX
  8
0
 10
4.43251
 20
7.55615
 30
0.0
 40
0
 41
0
  0
VERTEX
  8
0
 10
4.41667
 20
7.5286
 30
0.0
 40
0
 41
0
  0
VERTEX
  8
0
 10
4.39774
 20
7.50228
 30
0.0
 40
0
 41
0
  0
VERTEX
  8
0
 10
4.37076
 20
7.46392
 30
0.0
 40
0
 41
0
  0
VERTEX
  8
0
 10
4.35622
 20
7.43544
 30
0.0
 40
0
 41
0
  0
VERTEX
  8
0
 10
4.34831
 20
7.38954
 30
0.0
 40
0
 41
0
  0
VERTEX
  8
0
 10
4.34907
 20
7.34022
 30
0.0
 40
0
 41
0
  0
VERTEX
  8
0
 10
4.35867
 20
7.28586
 30
0.0
 40
0
 41
0
  0
VERTEX
  8
0
 10
4.37728
 20
7.22478
 30
0.0
 40
0
 41
0
  0
VERTEX
  8
0
 10
4.39094
 20
7.18647
 30
0.0
 40
0
 41
0
  0
VERTEX
  8
0
 10
4.37462
 20
7.14594
 30
0.0
 40
0
 41
0
  0
VERTEX
  8
0
 10
4.36165
 20
7.10894
 30
0.0
 40
0
 41
0
  0
VERTEX
  8
0
 10
4.35357
 20
7.07688
 30
0.0
 40
0
 41
0
  0
VERTEX
  8
0
 10
4.34685
 20
7.05388
 30
0.0
 40
0
 41
0
  0
VERTEX
  8
0
 10
4.3374
 20
7.03851
 30
0.0
 40
0
 41
0
  0
VERTEX
  8
0
 10
4.31825
 20
7.0255
 30
0.0
 40
0
 41
0
  0
VERTEX
  8
0
 10
4.28842
 20
7.00776
 30
0.0
 40
0
 41
0
  0
VERTEX
  8
0
 10
4.25988
 20
6.99214
 30
0.0
 40
0
 41
0
  0
VERTEX
  8
0
 10
4.24447
 20
6.9854
 30
0.0
 40
0
 41
0
  0
VERTEX
  8
0
 10
4.24143
 20
6.99397
 30
0.0
 40
0
 41
0
  0
VERTEX
  8
0
 10
4.24018
 20
7.01454
 30
0.0
 40
0
 41
0
  0
SEQEND
 8
0
  0
POLYLINE
  8
0
 62
     0
 66
     1
 10
0
 20
0
 30
0.0
 70
     1
 40
0
 41
0
  0
VERTEX
  8
0
 10
4.4841
 20
7.00429
 30
0.0
 40
0
 41
0
  0
VERTEX
  8
0
 10
4.48101
 20
7.02604
 30
0.0
 40
0
 41
0
  0
VERTEX
  8
0
 10
4.49104
 20
7.06424
 30
0.0
 40
0
 41
0
  0
VERTEX
  8
0
 10
4.49929
 20
7.10563
 30
0.0
 40
0
 41
0
  0
VERTEX
  8
0
 10
4.50461
 20
7.1671
 30
0.0
 40
0
 41
0
  0
VERTEX
  8
0
 10
4.50836
 20
7.23247
 30
0.0
 40
0
 41
0
  0
VERTEX
  8
0
 10
4.51286
 20
7.28369
 30
0.0
 40
0
 41
0
  0
VERTEX
  8
0
 10
4.51606
 20
7.30572
 30
0.0
 40
0
 41
0
  0
VERTEX
  8
0
 10
4.51981
 20
7.31847
 30
0.0
 40
0
 41
0
  0
VERTEX
  8
0
 10
4.52556
 20
7.32471
 30
0.0
 40
0
 41
0
  0
VERTEX
  8
0
 10
4.53467
 20
7.32721
 30
0.0
 40
0
 41
0
  0
VERTEX
  8
0
 10
4.54932
 20
7.32568
 30
0.0
 40
0
 41
0
  0
VERTEX
  8
0
 10
4.56039
 20
7.31733
 30
0.0
 40
0
 41
0
  0
VERTEX
  8
0
 10
4.56733
 20
7.29546
 30
0.0
 40
0
 41
0
  0
VERTEX
  8
0
 10
4.56885
 20
7.26074
 30
0.0
 40
0
 41
0
  0
VERTEX
  8
0
 10
4.56511
 20
7.21957
 30
0.0
 40
0
 41
0
  0
VERTEX
  8
0
 10
4.55632
 20
7.17817
 30
0.0
 40
0
 41
0
  0
VERTEX
  8
0
 10
4.54596
 20
7.12924
 30
0.0
 40
0
 41
0
  0
VERTEX
  8
0
 10
4.53933
 20
7.07525
 30
0.0
 40
0
 41
0
  0
VERTEX
  8
0
 10
4.53569
 20
7.03386
 30
0.0
 40
0
 41
0
  0
VERTEX
  8
0
 10
4.53267
 20
7.01503
 30
0.0
 40
0
 41
0
  0
VERTEX
  8
0
 10
4.52317
 20
7.01042
 30
0.0
 40
0
 41
0
  0
VERTEX
  8
0
 10
4.5076
 20
7.00613
 30
0.0
 40
0
 41
0
  0
VERTEX
  8
0
 10
4.4924
 20
7.00364
 30
0.0
 40
0
 41
0
  0
VERTEX
  8
0
 10
4.4841
 20
7.00429
 30
0.0
 40
0
 41
0
  0
SEQEND
 8
0
  0
POLYLINE
  8
0
 62
     0
 66
     1
 10
0
 20
0
 30
0.0
 70
     1
 40
0
 41
0
  0
VERTEX
  8
0
 10
1.07796
 20
7.02214
 30
0.0
 40
0
 41
0
  0
VERTEX
  8
0
 10
1.07492
 20
7.04042
 30
0.0
 40
0
 41
0
  0
VERTEX
  8
0
 10
1.08518
 20
7.065
 30
0.0
 40
0
 41
0
  0
VERTEX
  8
0
 10
1.09972
 20
7.09169
 30
0.0
 40
0
 41
0
  0
VERTEX
  8
0
 10
1.09549
 20
7.05567
 30
0.0
 40
0
 41
0
  0
VERTEX
  8
0
 10
1.09359
 20
7.03028
 30
0.0
 40
0
 41
0
  0
VERTEX
  8
0
 10
1.09511
 20
7.01969
 30
0.0
 40
0
 41
0
  0
VERTEX
  8
0
 10
1.10493
 20
7.03521
 30
0.0
 40
0
 41
0
  0
VERTEX
  8
0
 10
1.12326
 20
7.07232
 30
0.0
 40
0
 41
0
  0
VERTEX
  8
0
 10
1.14453
 20
7.11481
 30
0.0
 40
0
 41
0
  0
VERTEX
  8
0
 10
1.16357
 20
7.14529
 30
0.0
 40
0
 41
0
  0
VERTEX
  8
0
 10
1.17952
 20
7.16276
 30
0.0
 40
0
 41
0
  0
VERTEX
  8
0
 10
1.19173
 20
7.16624
 30
0.0
 40
0
 41
0
  0
VERTEX
  8
0
 10
1.21132
 20
7.17264
 30
0.0
 40
0
 41
0
  0
VERTEX
  8
0
 10
1.24474
 20
7.19325
 30
0.0
 40
0
 41
0
  0
VERTEX
  8
0
 10
1.28575
 20
7.21821
 30
0.0
 40
0
 41
0
  0
VERTEX
  8
0
 10
1.33957
 20
7.24517
 30
0.0
 40
0
 41
0
  0
VERTEX
  8
0
 10
1.39675
 20
7.26986
 30
0.0
 40
0
 41
0
  0
VERTEX
  8
0
 10
1.44792
 20
7.28782
 30
0.0
 40
0
 41
0
  0
VERTEX
  8
0
 10
1.47581
 20
7.30106
 30
0.0
 40
0
 41
0
  0
VERTEX
  8
0
 10
1.50032
 20
7.32303
 30
0.0
 40
0
 41
0
  0
VERTEX
  8
0
 10
1.54775
 20
7.3616
 30
0.0
 40
0
 41
0
  0
VERTEX
  8
0
 10
1.59831
 20
7.37631
 30
0.0
 40
0
 41
0
  0
VERTEX
  8
0
 10
1.64144
 20
7.38797
 30
0.0
 40
0
 41
0
  0
VERTEX
  8
0
 10
1.68479
 20
7.42731
 30
0.0
 40
0
 41
0
  0
VERTEX
  8
0
 10
1.70731
 20
7.45053
 30
0.0
 40
0
 41
0
  0
VERTEX
  8
0
 10
1.73101
 20
7.47006
 30
0.0
 40
0
 41
0
  0
VERTEX
  8
0
 10
1.75103
 20
7.48232
 30
0.0
 40
0
 41
0
  0
VERTEX
  8
0
 10
1.76232
 20
7.48367
 30
0.0
 40
0
 41
0
  0
VERTEX
  8
0
 10
1.76449
 20
7.47174
 30
0.0
 40
0
 41
0
  0
VERTEX
  8
0
 10
1.76004
 20
7.45107
 30
0.0
 40
0
 41
0
  0
VERTEX
  8
0
 10
1.75038
 20
7.42649
 30
0.0
 40
0
 41
0
  0
VERTEX
  8
0
 10
1.73708
 20
7.40278
 30
0.0
 40
0
 41
0
  0
VERTEX
  8
0
 10
1.71789
 20
7.36524
 30
0.0
 40
0
 41
0
  0
VERTEX
  8
0
 10
1.72342
 20
7.34543
 30
0.0
 40
0
 41
0
  0
VERTEX
  8
0
 10
1.73042
 20
7.32958
 30
0.0
 40
0
 41
0
  0
VERTEX
  8
0
 10
1.73654
 20
7.31483
 30
0.0
 40
0
 41
0
  0
VERTEX
  8
0
 10
1.75217
 20
7.29438
 30
0.0
 40
0
 41
0
  0
VERTEX
  8
0
 10
1.77339
 20
7.27263
 30
0.0
 40
0
 41
0
  0
VERTEX
  8
0
 10
1.79633
 20
7.25407
 30
0.0
 40
0
 41
0
  0
VERTEX
  8
0
 10
1.81321
 20
7.23753
 30
0.0
 40
0
 41
0
  0
VERTEX
  8
0
 10
1.82715
 20
7.21451
 30
0.0
 40
0
 41
0
  0
VERTEX
  8
0
 10
1.83649
 20
7.18826
 30
0.0
 40
0
 41
0
  0
VERTEX
  8
0
 10
1.8399
 20
7.16183
 30
0.0
 40
0
 41
0
  0
VERTEX
  8
0
 10
1.83822
 20
7.1404
 30
0.0
 40
0
 41
0
  0
VERTEX
  8
0
 10
1.83188
 20
7.1289
 30
0.0
 40
0
 41
0
  0
VERTEX
  8
0
 10
1.81862
 20
7.12576
 30
0.0
 40
0
 41
0
  0
VERTEX
  8
0
 10
1.79628
 20
7.12924
 30
0.0
 40
0
 41
0
  0
VERTEX
  8
0
 10
1.72906
 20
7.15381
 30
0.0
 40
0
 41
0
  0
VERTEX
  8
0
 10
1.67361
 20
7.1964
 30
0.0
 40
0
 41
0
  0
VERTEX
  8
0
 10
1.65707
 20
7.21451
 30
0.0
 40
0
 41
0
  0
VERTEX
  8
0
 10
1.64583
 20
7.23101
 30
0.0
 40
0
 41
0
  0
VERTEX
  8
0
 10
1.63792
 20
7.24918
 30
0.0
 40
0
 41
0
  0
VERTEX
  8
0
 10
1.63157
 20
7.2724
 30
0.0
 40
0
 41
0
  0
VERTEX
  8
0
 10
1.62343
 20
7.30414
 30
0.0
 40
0
 41
0
  0
VERTEX
  8
0
 10
1.61822
 20
7.31917
 30
0.0
 40
0
 41
0
  0
VERTEX
  8
0
 10
1.6116
 20
7.31554
 30
0.0
 40
0
 41
0
  0
VERTEX
  8
0
 10
1.59608
 20
7.30317
 30
0.0
 40
0
 41
0
  0
VERTEX
  8
0
 10
1.57389
 20
7.28401
 30
0.0
 40
0
 41
0
  0
VERTEX
  8
0
 10
1.54747
 20
7.26004
 30
0.0
 40
0
 41
0
  0
VERTEX
  8
0
 10
1.4961
 20
7.2161
 30
0.0
 40
0
 41
0
  0
VERTEX
  8
0
 10
1.44982
 20
7.18446
 30
0.0
 40
0
 41
0
  0
VERTEX
  8
0
 10
1.40528
 20
7.16342
 30
0.0
 40
0
 41
0
  0
VERTEX
  8
0
 10
1.35938
 20
7.15099
 30
0.0
 40
0
 41
0
  0
VERTEX
  8
0
 10
1.29975
 20
7.13112
 30
0.0
 40
0
 41
0
  0
VERTEX
  8
0
 10
1.2468
 20
7.09494
 30
0.0
 40
0
 41
0
  0
VERTEX
  8
0
 10
1.21853
 20
7.07156
 30
0.0
 40
0
 41
0
  0
VERTEX
  8
0
 10
1.17952
 20
7.04124
 30
0.0
 40
0
 41
0
  0
VERTEX
  8
0
 10
1.14247
 20
7.01693
 30
0.0
 40
0
 41
0
  0
VERTEX
  8
0
 10
1.11317
 20
7.00564
 30
0.0
 40
0
 41
0
  0
VERTEX
  8
0
 10
1.09163
 20
7.00738
 30
0.0
 40
0
 41
0
  0
VERTEX
  8
0
 10
1.07796
 20
7.02214
 30
0.0
 40
0
 41
0
  0
SEQEND
 8
0
  0
POLYLINE
  8
0
 62
     0
 66
     1
 10
0
 20
0
 30
0.0
 70
     1
 40
0
 41
0
  0
VERTEX
  8
0
 10
5.06993
 20
7.08556
 30
0.0
 40
0
 41
0
  0
VERTEX
  8
0
 10
5.01867
 20
7.10558
 30
0.0
 40
0
 41
0
  0
VERTEX
  8
0
 10
4.97738
 20
7.11871
 30
0.0
 40
0
 41
0
  0
VERTEX
  8
0
 10
4.94965
 20
7.12836
 30
0.0
 40
0
 41
0
  0
VERTEX
  8
0
 10
4.94086
 20
7.14193
 30
0.0
 40
0
 41
0
  0
VERTEX
  8
0
 10
4.94265
 20
7.15517
 30
0.0
 40
0
 41
0
  0
VERTEX
  8
0
 10
4.95383
 20
7.16135
 30
0.0
 40
0
 41
0
  0
VERTEX
  8
0
 10
4.97547
 20
7.16081
 30
0.0
 40
0
 41
0
  0
VERTEX
  8
0
 10
5.00896
 20
7.15369
 30
0.0
 40
0
 41
0
  0
VERTEX
  8
0
 10
5.12565
 20
7.14247
 30
0.0
 40
0
 41
0
  0
VERTEX
  8
0
 10
5.25965
 20
7.16732
 30
0.0
 40
0
 41
0
  0
VERTEX
  8
0
 10
5.29329
 20
7.1766
 30
0.0
 40
0
 41
0
  0
VERTEX
  8
0
 10
5.32519
 20
7.18414
 30
0.0
 40
0
 41
0
  0
VERTEX
  8
0
 10
5.35167
 20
7.18929
 30
0.0
 40
0
 41
0
  0
VERTEX
  8
0
 10
5.36925
 20
7.19114
 30
0.0
 40
0
 41
0
  0
VERTEX
  8
0
 10
5.40494
 20
7.19412
 30
0.0
 40
0
 41
0
  0
VERTEX
  8
0
 10
5.45074
 20
7.20122
 30
0.0
 40
0
 41
0
  0
VERTEX
  8
0
 10
5.49186
 20
7.20731
 30
0.0
 40
0
 41
0
  0
VERTEX
  8
0
 10
5.51574
 20
7.20551
 30
0.0
 40
0
 41
0
  0
VERTEX
  8
0
 10
5.52447
 20
7.19526
 30
0.0
 40
0
 41
0
  0
VERTEX
  8
0
 10
5.52029
 20
7.17563
 30
0.0
 40
0
 41
0
  0
VERTEX
  8
0
 10
5.50933
 20
7.15767
 30
0.0
 40
0
 41
0
  0
VERTEX
  8
0
 10
5.49029
 20
7.14231
 30
0.0
 40
0
 41
0
  0
VERTEX
  8
0
 10
5.45919
 20
7.12706
 30
0.0
 40
0
 41
0
  0
VERTEX
  8
0
 10
5.41217
 20
7.1096
 30
0.0
 40
0
 41
0
  0
VERTEX
  8
0
 10
5.3725
 20
7.09788
 30
0.0
 40
0
 41
0
  0
VERTEX
  8
0
 10
5.32264
 20
7.08746
 30
0.0
 40
0
 41
0
  0
VERTEX
  8
0
 10
5.25342
 20
7.07676
 30
0.0
 40
0
 41
0
  0
VERTEX
  8
0
 10
5.15565
 20
7.06407
 30
0.0
 40
0
 41
0
  0
VERTEX
  8
0
 10
5.1396
 20
7.06364
 30
0.0
 40
0
 41
0
  0
VERTEX
  8
0
 10
5.12175
 20
7.06663
 30
0.0
 40
0
 41
0
  0
VERTEX
  8
0
 10
5.09939
 20
7.07374
 30
0.0
 40
0
 41
0
  0
VERTEX
  8
0
 10
5.06993
 20
7.08556
 30
0.0
 40
0
 41
0
  0
SEQEND
 8
0
  0
POLYLINE
  8
0
 62
     0
 66
     1
 10
0
 20
0
 30
0.0
 70
     1
 40
0
 41
0
  0
VERTEX
  8
0
 10
4.37044
 20
7.08442
 30
0.0
 40
0
 41
0
  0
VERTEX
  8
0
 10
4.37733
 20
7.09169
 30
0.0
 40
0
 41
0
  0
VERTEX
  8
0
 10
4.38417
 20
7.08865
 30
0.0
 40
0
 41
0
  0
VERTEX
  8
0
 10
4.37733
 20
7.08138
 30
0.0
 40
0
 41
0
  0
VERTEX
  8
0
 10
4.37044
 20
7.08442
 30
0.0
 40
0
 41
0
  0
SEQEND
 8
0
  0
POLYLINE
  8
0
 62
     0
 66
     1
 10
0
 20
0
 30
0.0
 70
     1
 40
0
 41
0
  0
VERTEX
  8
0
 10
2.12799
 20
7.24821
 30
0.0
 40
0
 41
0
  0
VERTEX
  8
0
 10
2.13075
 20
7.25575
 30
0.0
 40
0
 41
0
  0
VERTEX
  8
0
 10
2.13835
 20
7.26958
 30
0.0
 40
0
 41
0
  0
VERTEX
  8
0
 10
2.14953
 20
7.28776
 30
0.0
 40
0
 41
0
  0
VERTEX
  8
0
 10
2.16325
 20
7.30821
 30
0.0
 40
0
 41
0
  0
VERTEX
  8
0
 10
2.18224
 20
7.33692
 30
0.0
 40
0
 41
0
  0
VERTEX
  8
0
 10
2.19331
 20
7.35829
 30
0.0
 40
0
 41
0
  0
VERTEX
  8
0
 10
2.19894
 20
7.37875
 30
0.0
 40
0
 41
0
  0
VERTEX
  8
0
 10
2.20182
 20
7.40457
 30
0.0
 40
0
 41
0
  0
VERTEX
  8
0
 10
2.2009
 20
7.45671
 30
0.0
 40
0
 41
0
  0
VERTEX
  8
0
 10
2.19282
 20
7.52035
 30
0.0
 40
0
 41
0
  0
VERTEX
  8
0
 10
2.18604
 20
7.56044
 30
0.0
 40
0
 41
0
  0
VERTEX
  8
0
 10
2.18381
 20
7.58251
 30
0.0
 40
0
 41
0
  0
VERTEX
  8
0
 10
2.18619
 20
7.59343
 30
0.0
 40
0
 41
0
  0
VERTEX
  8
0
 10
2.19325
 20
7.6001
 30
0.0
 40
0
 41
0
  0
VERTEX
  8
0
 10
2.20394
 20
7.60699
 30
0.0
 40
0
 41
0
  0
VERTEX
  8
0
 10
2.21246
 20
7.60835
 30
0.0
 40
0
 41
0
  0
VERTEX
  8
0
 10
2.22228
 20
7.60363
 30
0.0
 40
0
 41
0
  0
VERTEX
  8
0
 10
2.23676
 20
7.59207
 30
0.0
 40
0
 41
0
  0
VERTEX
  8
0
 10
2.25537
 20
7.57118
 30
0.0
 40
0
 41
0
  0
VERTEX
  8
0
 10
2.26719
 20
7.54318
 30
0.0
 40
0
 41
0
  0
VERTEX
  8
0
 10
2.27344
 20
7.50369
 30
0.0
 40
0
 41
0
  0
VERTEX
  8
0
 10
2.27528
 20
7.44829
 30
0.0
 40
0
 41
0
  0
VERTEX
  8
0
 10
2.27468
 20
7.40821
 30
0.0
 40
0
 41
0
  0
VERTEX
  8
0
 10
2.27251
 20
7.38118
 30
0.0
 40
0
 41
0
  0
VERTEX
  8
0
 10
2.2679
 20
7.36176
 30
0.0
 40
0
 41
0
  0
VERTEX
  8
0
 10
2.26004
 20
7.34418
 30
0.0
 40
0
 41
0
  0
VERTEX
  8
0
 10
2.24713
 20
7.32264
 30
0.0
 40
0
 41
0
  0
VERTEX
  8
0
 10
2.23757
 20
7.31104
 30
0.0
 40
0
 41
0
  0
VERTEX
  8
0
 10
2.22754
 20
7.30013
 30
0.0
 40
0
 41
0
  0
VERTEX
  8
0
 10
2.2136
 20
7.28006
 30
0.0
 40
0
 41
0
  0
VERTEX
  8
0
 10
2.19472
 20
7.25803
 30
0.0
 40
0
 41
0
  0
VERTEX
  8
0
 10
2.171
 20
7.24636
 30
0.0
 40
0
 41
0
  0
VERTEX
  8
0
 10
2.13667
 20
7.23969
 30
0.0
 40
0
 41
0
  0
VERTEX
  8
0
 10
2.12799
 20
7.24821
 30
0.0
 40
0
 41
0
  0
SEQEND
 8
0
  0
POLYLINE
  8
0
 62
     0
 66
     1
 10
0
 20
0
 30
0.0
 70
     1
 40
0
 41
0
  0
VERTEX
  8
0
 10
3.89953
 20
7.32221
 30
0.0
 40
0
 41
0
  0
VERTEX
  8
0
 10
3.88943
 20
7.33692
 30
0.0
 40
0
 41
0
  0
VERTEX
  8
0
 10
3.89307
 20
7.35335
 30
0.0
 40
0
 41
0
  0
VERTEX
  8
0
 10
3.90375
 20
7.36675
 30
0.0
 40
0
 41
0
  0
VERTEX
  8
0
 10
3.92617
 20
7.36643
 30
0.0
 40
0
 41
0
  0
VERTEX
  8
0
 10
3.94032
 20
7.36496
 30
0.0
 40
0
 41
0
  0
VERTEX
  8
0
 10
3.95003
 20
7.36681
 30
0.0
 40
0
 41
0
  0
VERTEX
  8
0
 10
3.95806
 20
7.37321
 30
0.0
 40
0
 41
0
  0
VERTEX
  8
0
 10
3.96729
 20
7.38553
 30
0.0
 40
0
 41
0
  0
VERTEX
  8
0
 10
3.99561
 20
7.42279
 30
0.0
 40
0
 41
0
  0
VERTEX
  8
0
 10
4.02864
 20
7.45979
 30
0.0
 40
0
 41
0
  0
VERTEX
  8
0
 10
4.06179
 20
7.49164
 30
0.0
 40
0
 41
0
  0
VERTEX
  8
0
 10
4.09033
 20
7.51346
 30
0.0
 40
0
 41
0
  0
VERTEX
  8
0
 10
4.12067
 20
7.53754
 30
0.0
 40
0
 41
0
  0
VERTEX
  8
0
 10
4.14106
 20
7.57021
 30
0.0
 40
0
 41
0
  0
VERTEX
  8
0
 10
4.15283
 20
7.59858
 30
0.0
 40
0
 41
0
  0
VERTEX
  8
0
 10
4.15782
 20
7.61649
 30
0.0
 40
0
 41
0
  0
VERTEX
  8
0
 10
4.16103
 20
7.62847
 30
0.0
 40
0
 41
0
  0
VERTEX
  8
0
 10
4.16878
 20
7.64253
 30
0.0
 40
0
 41
0
  0
VERTEX
  8
0
 10
4.1774
 20
7.662
 30
0.0
 40
0
 41
0
  0
VERTEX
  8
0
 10
4.18289
 20
7.6869
 30
0.0
 40
0
 41
0
  0
VERTEX
  8
0
 10
4.18892
 20
7.72478
 30
0.0
 40
0
 41
0
  0
VERTEX
  8
0
 10
4.19786
 20
7.75939
 30
0.0
 40
0
 41
0
  0
VERTEX
  8
0
 10
4.20882
 20
7.78776
 30
0.0
 40
0
 41
0
  0
VERTEX
  8
0
 10
4.22086
 20
7.80686
 30
0.0
 40
0
 41
0
  0
VERTEX
  8
0
 10
4.26731
 20
7.85107
 30
0.0
 40
0
 41
0
  0
VERTEX
  8
0
 10
4.3036
 20
7.87104
 30
0.0
 40
0
 41
0
  0
VERTEX
  8
0
 10
4.31489
 20
7.8731
 30
0.0
 40
0
 41
0
  0
VERTEX
  8
0
 10
4.32047
 20
7.87201
 30
0.0
 40
0
 41
0
  0
VERTEX
  8
0
 10
4.32167
 20
7.86649
 30
0.0
 40
0
 41
0
  0
VERTEX
  8
0
 10
4.31982
 20
7.85508
 30
0.0
 40
0
 41
0
  0
VERTEX
  8
0
 10
4.32596
 20
7.81506
 30
0.0
 40
0
 41
0
  0
VERTEX
  8
0
 10
4.3335
 20
7.79856
 30
0.0
 40
0
 41
0
  0
VERTEX
  8
0
 10
4.33475
 20
7.7864
 30
0.0
 40
0
 41
0
  0
VERTEX
  8
0
 10
4.32878
 20
7.77408
 30
0.0
 40
0
 41
0
  0
VERTEX
  8
0
 10
4.31478
 20
7.757
 30
0.0
 40
0
 41
0
  0
VERTEX
  8
0
 10
4.29503
 20
7.72993
 30
0.0
 40
0
 41
0
  0
VERTEX
  8
0
 10
4.27539
 20
7.6959
 30
0.0
 40
0
 41
0
  0
VERTEX
  8
0
 10
4.26025
 20
7.66342
 30
0.0
 40
0
 41
0
  0
VERTEX
  8
0
 10
4.25407
 20
7.64094
 30
0.0
 40
0
 41
0
  0
VERTEX
  8
0
 10
4.24403
 20
7.62131
 30
0.0
 40
0
 41
0
  0
VERTEX
  8
0
 10
4.22021
 20
7.59229
 30
0.0
 40
0
 41
0
  0
VERTEX
  8
0
 10
4.1881
 20
7.55067
 30
0.0
 40
0
 41
0
  0
VERTEX
  8
0
 10
4.15831
 20
7.5006
 30
0.0
 40
0
 41
0
  0
VERTEX
  8
0
 10
4.11518
 20
7.43024
 30
0.0
 40
0
 41
0
  0
VERTEX
  8
0
 10
4.06413
 20
7.37642
 30
0.0
 40
0
 41
0
  0
VERTEX
  8
0
 10
4.00342
 20
7.33763
 30
0.0
 40
0
 41
0
  0
VERTEX
  8
0
 10
3.93115
 20
7.31233
 30
0.0
 40
0
 41
0
  0
VERTEX
  8
0
 10
3.91439
 20
7.31239
 30
0.0
 40
0
 41
0
  0
VERTEX
  8
0
 10
3.89953
 20
7.32221
 30
0.0
 40
0
 41
0
  0
SEQEND
 8
0
  0
POLYLINE
  8
0
 62
     0
 66
     1
 10
0
 20
0
 30
0.0
 70
     1
 40
0
 41
0
  0
VERTEX
  8
0
 10
3.7079
 20
7.39051
 30
0.0
 40
0
 41
0
  0
VERTEX
  8
0
 10
3.69401
 20
7.4025
 30
0.0
 40
0
 41
0
  0
VERTEX
  8
0
 10
3.67643
 20
7.41911
 30
0.0
 40
0
 41
0
  0
VERTEX
  8
0
 10
3.6569
 20
7.43853
 30
0.0
 40
0
 41
0
  0
VERTEX
  8
0
 10
3.63704
 20
7.45904
 30
0.0
 40
0
 41
0
  0
VERTEX
  8
0
 10
3.61865
 20
7.47874
 30
0.0
 40
0
 41
0
  0
VERTEX
  8
0
 10
3.60335
 20
7.49593
 30
0.0
 40
0
 41
0
  0
VERTEX
  8
0
 10
3.59283
 20
7.50879
 30
0.0
 40
0
 41
0
  0
VERTEX
  8
0
 10
3.58892
 20
7.51551
 30
0.0
 40
0
 41
0
  0
VERTEX
  8
0
 10
3.57981
 20
7.53412
 30
0.0
 40
0
 41
0
  0
VERTEX
  8
0
 10
3.55908
 20
7.56413
 30
0.0
 40
0
 41
0
  0
VERTEX
  8
0
 10
3.53543
 20
7.59392
 30
0.0
 40
0
 41
0
  0
VERTEX
  8
0
 10
3.51742
 20
7.61176
 30
0.0
 40
0
 41
0
  0
VERTEX
  8
0
 10
3.49414
 20
7.62022
 30
0.0
 40
0
 41
0
  0
VERTEX
  8
0
 10
3.46035
 20
7.62332
 30
0.0
 40
0
 41
0
  0
VERTEX
  8
0
 10
3.42383
 20
7.62522
 30
0.0
 40
0
 41
0
  0
VERTEX
  8
0
 10
3.39344
 20
7.63026
 30
0.0
 40
0
 41
0
  0
VERTEX
  8
0
 10
3.37071
 20
7.63803
 30
0.0
 40
0
 41
0
  0
VERTEX
  8
0
 10
3.35732
 20
7.64822
 30
0.0
 40
0
 41
0
  0
VERTEX
  8
0
 10
3.35118
 20
7.65956
 30
0.0
 40
0
 41
0
  0
VERTEX
  8
0
 10
3.3526
 20
7.66829
 30
0.0
 40
0
 41
0
  0
VERTEX
  8
0
 10
3.36257
 20
7.67583
 30
0.0
 40
0
 41
0
  0
VERTEX
  8
0
 10
3.38206
 20
7.68343
 30
0.0
 40
0
 41
0
  0
VERTEX
  8
0
 10
3.39979
 20
7.68842
 30
0.0
 40
0
 41
0
  0
VERTEX
  8
0
 10
3.41639
 20
7.68842
 30
0.0
 40
0
 41
0
  0
VERTEX
  8
0
 10
3.43967
 20
7.68224
 30
0.0
 40
0
 41
0
  0
VERTEX
  8
0
 10
3.47765
 20
7.66862
 30
0.0
 40
0
 41
0
  0
VERTEX
  8
0
 10
3.50504
 20
7.65875
 30
0.0
 40
0
 41
0
  0
VERTEX
  8
0
 10
3.5306
 20
7.64996
 30
0.0
 40
0
 41
0
  0
VERTEX
  8
0
 10
3.55143
 20
7.64322
 30
0.0
 40
0
 41
0
  0
VERTEX
  8
0
 10
3.56467
 20
7.63949
 30
0.0
 40
0
 41
0
  0
VERTEX
  8
0
 10
3.58931
 20
7.63135
 30
0.0
 40
0
 41
0
  0
VERTEX
  8
0
 10
3.61974
 20
7.61746
 30
0.0
 40
0
 41
0
  0
VERTEX
  8
0
 10
3.65044
 20
7.60069
 30
0.0
 40
0
 41
0
  0
VERTEX
  8
0
 10
3.67611
 20
7.58365
 30
0.0
 40
0
 41
0
  0
VERTEX
  8
0
 10
3.69183
 20
7.57383
 30
0.0
 40
0
 41
0
  0
VERTEX
  8
0
 10
3.6984
 20
7.57394
 30
0.0
 40
0
 41
0
  0
VERTEX
  8
0
 10
3.69157
 20
7.58544
 30
0.0
 40
0
 41
0
  0
VERTEX
  8
0
 10
3.68468
 20
7.60194
 30
0.0
 40
0
 41
0
  0
VERTEX
  8
0
 10
3.68181
 20
7.61649
 30
0.0
 40
0
 41
0
  0
VERTEX
  8
0
 10
3.67507
 20
7.63411
 30
0.0
 40
0
 41
0
  0
VERTEX
  8
0
 10
3.66689
 20
7.65474
 30
0.0
 40
0
 41
0
  0
VERTEX
  8
0
 10
3.66081
 20
7.67632
 30
0.0
 40
0
 41
0
  0
VERTEX
  8
0
 10
3.65944
 20
7.69482
 30
0.0
 40
0
 41
0
  0
VERTEX
  8
0
 10
3.67079
 20
7.69857
 30
0.0
 40
0
 41
0
  0
VERTEX
  8
0
 10
3.69857
 20
7.69228
 30
0.0
 40
0
 41
0
  0
VERTEX
  8
0
 10
3.72629
 20
7.67285
 30
0.0
 40
0
 41
0
  0
VERTEX
  8
0
 10
3.75478
 20
7.63954
 30
0.0
 40
0
 41
0
  0
VERTEX
  8
0
 10
3.78478
 20
7.59158
 30
0.0
 40
0
 41
0
  0
VERTEX
  8
0
 10
3.80724
 20
7.55692
 30
0.0
 40
0
 41
0
  0
VERTEX
  8
0
 10
3.82628
 20
7.53614
 30
0.0
 40
0
 41
0
  0
VERTEX
  8
0
 10
3.85206
 20
7.5275
 30
0.0
 40
0
 41
0
  0
VERTEX
  8
0
 10
3.89236
 20
7.5224
 30
0.0
 40
0
 41
0
  0
VERTEX
  8
0
 10
3.94293
 20
7.51882
 30
0.0
 40
0
 41
0
  0
VERTEX
  8
0
 10
3.96365
 20
7.51351
 30
0.0
 40
0
 41
0
  0
VERTEX
  8
0
 10
3.95757
 20
7.50325
 30
0.0
 40
0
 41
0
  0
VERTEX
  8
0
 10
3.92779
 20
7.48475
 30
0.0
 40
0
 41
0
  0
VERTEX
  8
0
 10
3.88624
 20
7.46137
 30
0.0
 40
0
 41
0
  0
VERTEX
  8
0
 10
3.86025
 20
7.45133
 30
0.0
 40
0
 41
0
  0
VERTEX
  8
0
 10
3.83925
 20
7.45269
 30
0.0
 40
0
 41
0
  0
VERTEX
  8
0
 10
3.81261
 20
7.46354
 30
0.0
 40
0
 41
0
  0
VERTEX
  8
0
 10
3.78521
 20
7.47771
 30
0.0
 40
0
 41
0
  0
VERTEX
  8
0
 10
3.77382
 20
7.48697
 30
0.0
 40
0
 41
0
  0
VERTEX
  8
0
 10
3.7659
 20
7.49283
 30
0.0
 40
0
 41
0
  0
VERTEX
  8
0
 10
3.76372
 20
7.48904
 30
0.0
 40
0
 41
0
  0
VERTEX
  8
0
 10
3.77024
 20
7.47933
 30
0.0
 40
0
 41
0
  0
VERTEX
  8
0
 10
3.77989
 20
7.45931
 30
0.0
 40
0
 41
0
  0
VERTEX
  8
0
 10
3.78222
 20
7.43294
 30
0.0
 40
0
 41
0
  0
VERTEX
  8
0
 10
3.7775
 20
7.40631
 30
0.0
 40
0
 41
0
  0
VERTEX
  8
0
 10
3.766
 20
7.38553
 30
0.0
 40
0
 41
0
  0
VERTEX
  8
0
 10
3.75315
 20
7.37397
 30
0.0
 40
0
 41
0
  0
VERTEX
  8
0
 10
3.7416
 20
7.37071
 30
0.0
 40
0
 41
0
  0
VERTEX
  8
0
 10
3.72771
 20
7.37614
 30
0.0
 40
0
 41
0
  0
VERTEX
  8
0
 10
3.7079
 20
7.39051
 30
0.0
 40
0
 41
0
  0
SEQEND
 8
0
  0
POLYLINE
  8
0
 62
     0
 66
     1
 10
0
 20
0
 30
0.0
 70
     1
 40
0
 41
0
  0
VERTEX
  8
0
 10
3.91786
 20
7.38997
 30
0.0
 40
0
 41
0
  0
VERTEX
  8
0
 10
3.92469
 20
7.39686
 30
0.0
 40
0
 41
0
  0
VERTEX
  8
0
 10
3.93158
 20
7.38997
 30
0.0
 40
0
 41
0
  0
VERTEX
  8
0
 10
3.92469
 20
7.38314
 30
0.0
 40
0
 41
0
  0
VERTEX
  8
0
 10
3.91786
 20
7.38997
 30
0.0
 40
0
 41
0
  0
SEQEND
 8
0
  0
POLYLINE
  8
0
 62
     0
 66
     1
 10
0
 20
0
 30
0.0
 70
     1
 40
0
 41
0
  0
VERTEX
  8
0
 10
4.52669
 20
7.44325
 30
0.0
 40
0
 41
0
  0
VERTEX
  8
0
 10
4.51932
 20
7.47288
 30
0.0
 40
0
 41
0
  0
VERTEX
  8
0
 10
4.5165
 20
7.52458
 30
0.0
 40
0
 41
0
  0
VERTEX
  8
0
 10
4.51844
 20
7.57742
 30
0.0
 40
0
 41
0
  0
VERTEX
  8
0
 10
4.52533
 20
7.61029
 30
0.0
 40
0
 41
0
  0
VERTEX
  8
0
 10
4.53521
 20
7.62901
 30
0.0
 40
0
 41
0
  0
VERTEX
  8
0
 10
4.54579
 20
7.65104
 30
0.0
 40
0
 41
0
  0
VERTEX
  8
0
 10
4.56917
 20
7.67953
 30
0.0
 40
0
 41
0
  0
VERTEX
  8
0
 10
4.60883
 20
7.7079
 30
0.0
 40
0
 41
0
  0
VERTEX
  8
0
 10
4.65414
 20
7.72988
 30
0.0
 40
0
 41
0
  0
VERTEX
  8
0
 10
4.6945
 20
7.73921
 30
0.0
 40
0
 41
0
  0
VERTEX
  8
0
 10
4.71024
 20
7.73589
 30
0.0
 40
0
 41
0
  0
VERTEX
  8
0
 10
4.71332
 20
7.71664
 30
0.0
 40
0
 41
0
  0
VERTEX
  8
0
 10
4.71175
 20
7.70361
 30
0.0
 40
0
 41
0
  0
VERTEX
  8
0
 10
4.70617
 20
7.69069
 30
0.0
 40
0
 41
0
  0
VERTEX
  8
0
 10
4.69515
 20
7.67563
 30
0.0
 40
0
 41
0
  0
VERTEX
  8
0
 10
4.67736
 20
7.65603
 30
0.0
 40
0
 41
0
  0
VERTEX
  8
0
 10
4.65349
 20
7.62799
 30
0.0
 40
0
 41
0
  0
VERTEX
  8
0
 10
4.63747
 20
7.59956
 30
0.0
 40
0
 41
0
  0
VERTEX
  8
0
 10
4.62706
 20
7.56549
 30
0.0
 40
0
 41
0
  0
VERTEX
  8
0
 10
4.61996
 20
7.52029
 30
0.0
 40
0
 41
0
  0
VERTEX
  8
0
 10
4.61496
 20
7.49289
 30
0.0
 40
0
 41
0
  0
VERTEX
  8
0
 10
4.60764
 20
7.46869
 30
0.0
 40
0
 41
0
  0
VERTEX
  8
0
 10
4.59933
 20
7.45144
 30
0.0
 40
0
 41
0
  0
VERTEX
  8
0
 10
4.59142
 20
7.44472
 30
0.0
 40
0
 41
0
  0
VERTEX
  8
0
 10
4.5804
 20
7.44288
 30
0.0
 40
0
 41
0
  0
VERTEX
  8
0
 10
4.56099
 20
7.43858
 30
0.0
 40
0
 41
0
  0
VERTEX
  8
0
 10
4.5389
 20
7.43614
 30
0.0
 40
0
 41
0
  0
VERTEX
  8
0
 10
4.52669
 20
7.44325
 30
0.0
 40
0
 41
0
  0
SEQEND
 8
0
  0
POLYLINE
  8
0
 62
     0
 66
     1
 10
0
 20
0
 30
0.0
 70
     1
 40
0
 41
0
  0
VERTEX
  8
0
 10
3.86128
 20
7.56619
 30
0.0
 40
0
 41
0
  0
VERTEX
  8
0
 10
3.85628
 20
7.56754
 30
0.0
 40
0
 41
0
  0
VERTEX
  8
0
 10
3.85254
 20
7.56976
 30
0.0
 40
0
 41
0
  0
VERTEX
  8
0
 10
3.84819
 20
7.58371
 30
0.0
 40
0
 41
0
  0
VERTEX
  8
0
 10
3.84717
 20
7.59896
 30
0.0
 40
0
 41
0
  0
VERTEX
  8
0
 10
3.84636
 20
7.65468
 30
0.0
 40
0
 41
0
  0
VERTEX
  8
0
 10
3.84619
 20
7.69857
 30
0.0
 40
0
 41
0
  0
VERTEX
  8
0
 10
3.84576
 20
7.74561
 30
0.0
 40
0
 41
0
  0
VERTEX
  8
0
 10
3.84261
 20
7.81207
 30
0.0
 40
0
 41
0
  0
VERTEX
  8
0
 10
3.83919
 20
7.83475
 30
0.0
 40
0
 41
0
  0
VERTEX
  8
0
 10
3.83415
 20
7.8526
 30
0.0
 40
0
 41
0
  0
VERTEX
  8
0
 10
3.82704
 20
7.86719
 30
0.0
 40
0
 41
0
  0
VERTEX
  8
0
 10
3.8176
 20
7.88021
 30
0.0
 40
0
 41
0
  0
VERTEX
  8
0
 10
3.8055
 20
7.89322
 30
0.0
 40
0
 41
0
  0
VERTEX
  8
0
 10
3.78196
 20
7.92036
 30
0.0
 40
0
 41
0
  0
VERTEX
  8
0
 10
3.76297
 20
7.94906
 30
0.0
 40
0
 41
0
  0
VERTEX
  8
0
 10
3.75076
 20
7.97537
 30
0.0
 40
0
 41
0
  0
VERTEX
  8
0
 10
3.74772
 20
7.99511
 30
0.0
 40
0
 41
0
  0
VERTEX
  8
0
 10
3.75521
 20
8.00971
 30
0.0
 40
0
 41
0
  0
VERTEX
  8
0
 10
3.77078
 20
8.01688
 30
0.0
 40
0
 41
0
  0
VERTEX
  8
0
 10
3.7921
 20
8.01617
 30
0.0
 40
0
 41
0
  0
VERTEX
  8
0
 10
3.81683
 20
8.00717
 30
0.0
 40
0
 41
0
  0
VERTEX
  8
0
 10
3.84369
 20
7.99149
 30
0.0
 40
0
 41
0
  0
VERTEX
  8
0
 10
3.86415
 20
7.97461
 30
0.0
 40
0
 41
0
  0
VERTEX
  8
0
 10
3.88032
 20
7.95458
 30
0.0
 40
0
 41
0
  0
VERTEX
  8
0
 10
3.89421
 20
7.92914
 30
0.0
 40
0
 41
0
  0
VERTEX
  8
0
 10
3.90989
 20
7.89572
 30
0.0
 40
0
 41
0
  0
VERTEX
  8
0
 10
3.92415
 20
7.94189
 30
0.0
 40
0
 41
0
  0
VERTEX
  8
0
 10
3.93419
 20
7.98525
 30
0.0
 40
0
 41
0
  0
VERTEX
  8
0
 10
3.93842
 20
8.02463
 30
0.0
 40
0
 41
0
  0
VERTEX
  8
0
 10
3.94054
 20
8.05181
 30
0.0
 40
0
 41
0
  0
VERTEX
  8
0
 10
3.94564
 20
8.06569
 30
0.0
 40
0
 41
0
  0
VERTEX
  8
0
 10
3.94586
 20
8.0785
 30
0.0
 40
0
 41
0
  0
VERTEX
  8
0
 10
3.94233
 20
8.09011
 30
0.0
 40
0
 41
0
  0
VERTEX
  8
0
 10
3.94422
 20
8.10672
 30
0.0
 40
0
 41
0
  0
VERTEX
  8
0
 10
3.95378
 20
8.12261
 30
0.0
 40
0
 41
0
  0
VERTEX
  8
0
 10
3.97065
 20
8.13249
 30
0.0
 40
0
 41
0
  0
VERTEX
  8
0
 10
3.99197
 20
8.13531
 30
0.0
 40
0
 41
0
  0
VERTEX
  8
0
 10
4.01481
 20
8.13021
 30
0.0
 40
0
 41
0
  0
VERTEX
  8
0
 10
4.02892
 20
8.12044
 30
0.0
 40
0
 41
0
  0
VERTEX
  8
0
 10
4.03396
 20
8.10221
 30
0.0
 40
0
 41
0
  0
VERTEX
  8
0
 10
4.03017
 20
8.06933
 30
0.0
 40
0
 41
0
  0
VERTEX
  8
0
 10
4.01768
 20
8.01531
 30
0.0
 40
0
 41
0
  0
VERTEX
  8
0
 10
4.00369
 20
7.95231
 30
0.0
 40
0
 41
0
  0
VERTEX
  8
0
 10
3.99376
 20
7.89404
 30
0.0
 40
0
 41
0
  0
VERTEX
  8
0
 10
3.98465
 20
7.84256
 30
0.0
 40
0
 41
0
  0
VERTEX
  8
0
 10
3.97282
 20
7.79568
 30
0.0
 40
0
 41
0
  0
VERTEX
  8
0
 10
3.96306
 20
7.75418
 30
0.0
 40
0
 41
0
  0
VERTEX
  8
0
 10
3.95899
 20
7.71522
 30
0.0
 40
0
 41
0
  0
VERTEX
  8
0
 10
3.95654
 20
7.67513
 30
0.0
 40
0
 41
0
  0
VERTEX
  8
0
 10
3.95079
 20
7.63058
 30
0.0
 40
0
 41
0
  0
VERTEX
  8
0
 10
3.94564
 20
7.60308
 30
0.0
 40
0
 41
0
  0
VERTEX
  8
0
 10
3.94006
 20
7.58767
 30
0.0
 40
0
 41
0
  0
VERTEX
  8
0
 10
3.93078
 20
7.57915
 30
0.0
 40
0
 41
0
  0
VERTEX
  8
0
 10
3.91461
 20
7.57215
 30
0.0
 40
0
 41
0
  0
VERTEX
  8
0
 10
3.88493
 20
7.56304
 30
0.0
 40
0
 41
0
  0
VERTEX
  8
0
 10
3.86128
 20
7.56619
 30
0.0
 40
0
 41
0
  0
SEQEND
 8
0
  0
POLYLINE
  8
0
 62
     0
 66
     1
 10
0
 20
0
 30
0.0
 70
     1
 40
0
 41
0
  0
VERTEX
  8
0
 10
3.52013
 20
7.67572
 30
0.0
 40
0
 41
0
  0
VERTEX
  8
0
 10
3.4936
 20
7.68311
 30
0.0
 40
0
 41
0
  0
VERTEX
  8
0
 10
3.46642
 20
7.69536
 30
0.0
 40
0
 41
0
  0
VERTEX
  8
0
 10
3.4445
 20
7.70936
 30
0.0
 40
0
 41
0
  0
VERTEX
  8
0
 10
3.43371
 20
7.722
 30
0.0
 40
0
 41
0
  0
VERTEX
  8
0
 10
3.42746
 20
7.73568
 30
0.0
 40
0
 41
0
  0
VERTEX
  8
0
 10
3.41868
 20
7.74849
 30
0.0
 40
0
 41
0
  0
VERTEX
  8
0
 10
3.41433
 20
7.76654
 30
0.0
 40
0
 41
0
  0
VERTEX
  8
0
 10
3.43832
 20
7.77756
 30
0.0
 40
0
 41
0
  0
VERTEX
  8
0
 10
3.47396
 20
7.7844
 30
0.0
 40
0
 41
0
  0
VERTEX
  8
0
 10
3.49219
 20
7.78554
 30
0.0
 40
0
 41
0
  0
VERTEX
  8
0
 10
3.50049
 20
7.77989
 30
0.0
 40
0
 41
0
  0
VERTEX
  8
0
 10
3.5064
 20
7.766
 30
0.0
 40
0
 41
0
  0
VERTEX
  8
0
 10
3.53413
 20
7.72325
 30
0.0
 40
0
 41
0
  0
VERTEX
  8
0
 10
3.57667
 20
7.69097
 30
0.0
 40
0
 41
0
  0
VERTEX
  8
0
 10
3.59478
 20
7.68067
 30
0.0
 40
0
 41
0
  0
VERTEX
  8
0
 10
3.60238
 20
7.67443
 30
0.0
 40
0
 41
0
  0
VERTEX
  8
0
 10
3.59315
 20
7.67253
 30
0.0
 40
0
 41
0
  0
VERTEX
  8
0
 10
3.57101
 20
7.67215
 30
0.0
 40
0
 41
0
  0
VERTEX
  8
0
 10
3.54394
 20
7.67329
 30
0.0
 40
0
 41
0
  0
VERTEX
  8
0
 10
3.52013
 20
7.67572
 30
0.0
 40
0
 41
0
  0
SEQEND
 8
0
  0
POLYLINE
  8
0
 62
     0
 66
     1
 10
0
 20
0
 30
0.0
 70
     1
 40
0
 41
0
  0
VERTEX
  8
0
 10
3.93989
 20
8.27251
 30
0.0
 40
0
 41
0
  0
VERTEX
  8
0
 10
3.92936
 20
8.27849
 30
0.0
 40
0
 41
0
  0
VERTEX
  8
0
 10
3.91379
 20
8.29243
 30
0.0
 40
0
 41
0
  0
VERTEX
  8
0
 10
3.8941
 20
8.31336
 30
0.0
 40
0
 41
0
  0
VERTEX
  8
0
 10
3.8711
 20
8.34017
 30
0.0
 40
0
 41
0
  0
VERTEX
  8
0
 10
3.84581
 20
8.37169
 30
0.0
 40
0
 41
0
  0
VERTEX
  8
0
 10
3.81907
 20
8.40685
 30
0.0
 40
0
 41
0
  0
VERTEX
  8
0
 10
3.79178
 20
8.44461
 30
0.0
 40
0
 41
0
  0
VERTEX
  8
0
 10
3.76492
 20
8.48378
 30
0.0
 40
0
 41
0
  0
VERTEX
  8
0
 10
3.68978
 20
8.61165
 30
0.0
 40
0
 41
0
  0
VERTEX
  8
0
 10
3.62999
 20
8.75071
 30
0.0
 40
0
 41
0
  0
VERTEX
  8
0
 10
3.61783
 20
8.78549
 30
0.0
 40
0
 41
0
  0
VERTEX
  8
0
 10
3.6116
 20
8.81104
 30
0.0
 40
0
 41
0
  0
VERTEX
  8
0
 10
3.60981
 20
8.83561
 30
0.0
 40
0
 41
0
  0
VERTEX
  8
0
 10
3.61133
 20
8.86729
 30
0.0
 40
0
 41
0
  0
VERTEX
  8
0
 10
3.61887
 20
8.93044
 30
0.0
 40
0
 41
0
  0
VERTEX
  8
0
 10
3.63238
 20
9.00846
 30
0.0
 40
0
 41
0
  0
VERTEX
  8
0
 10
3.64871
 20
9.08464
 30
0.0
 40
0
 41
0
  0
VERTEX
  8
0
 10
3.66456
 20
9.14214
 30
0.0
 40
0
 41
0
  0
VERTEX
  8
0
 10
3.67692
 20
9.19183
 30
0.0
 40
0
 41
0
  0
VERTEX
  8
0
 10
3.68289
 20
9.24544
 30
0.0
 40
0
 41
0
  0
VERTEX
  8
0
 10
3.68218
 20
9.29639
 30
0.0
 40
0
 41
0
  0
VERTEX
  8
0
 10
3.67443
 20
9.33811
 30
0.0
 40
0
 41
0
  0
VERTEX
  8
0
 10
3.65147
 20
9.39746
 30
0.0
 40
0
 41
0
  0
VERTEX
  8
0
 10
3.62088
 20
9.46169
 30
0.0
 40
0
 41
0
  0
VERTEX
  8
0
 10
3.58669
 20
9.52279
 30
0.0
 40
0
 41
0
  0
VERTEX
  8
0
 10
3.55317
 20
9.57269
 30
0.0
 40
0
 41
0
  0
VERTEX
  8
0
 10
3.50879
 20
9.63081
 30
0.0
 40
0
 41
0
  0
VERTEX
  8
0
 10
3.47418
 20
9.67697
 30
0.0
 40
0
 41
0
  0
VERTEX
  8
0
 10
3.44683
 20
9.71522
 30
0.0
 40
0
 41
0
  0
VERTEX
  8
0
 10
3.42404
 20
9.74978
 30
0.0
 40
0
 41
0
  0
VERTEX
  8
0
 10
3.40338
 20
9.78472
 30
0.0
 40
0
 41
0
  0
VERTEX
  8
0
 10
3.38211
 20
9.82417
 30
0.0
 40
0
 41
0
  0
VERTEX
  8
0
 10
3.35781
 20
9.87224
 30
0.0
 40
0
 41
0
  0
VERTEX
  8
0
 10
3.32781
 20
9.93306
 30
0.0
 40
0
 41
0
  0
VERTEX
  8
0
 10
3.29249
 20
10.0061
 30
0.0
 40
0
 41
0
  0
VERTEX
  8
0
 10
3.26193
 20
10.0713
 30
0.0
 40
0
 41
0
  0
VERTEX
  8
0
 10
3.23947
 20
10.1218
 30
0.0
 40
0
 41
0
  0
VERTEX
  8
0
 10
3.22835
 20
10.1502
 30
0.0
 40
0
 41
0
  0
VERTEX
  8
0
 10
3.22293
 20
10.1713
 30
0.0
 40
0
 41
0
  0
VERTEX
  8
0
 10
3.22114
 20
10.1879
 30
0.0
 40
0
 41
0
  0
VERTEX
  8
0
 10
3.22308
 20
10.2058
 30
0.0
 40
0
 41
0
  0
VERTEX
  8
0
 10
3.22885
 20
10.2303
 30
0.0
 40
0
 41
0
  0
VERTEX
  8
0
 10
3.24414
 20
10.2765
 30
0.0
 40
0
 41
0
  0
VERTEX
  8
0
 10
3.26822
 20
10.3375
 30
0.0
 40
0
 41
0
  0
VERTEX
  8
0
 10
3.294
 20
10.396
 30
0.0
 40
0
 41
0
  0
VERTEX
  8
0
 10
3.31429
 20
10.4348
 30
0.0
 40
0
 41
0
  0
VERTEX
  8
0
 10
3.32753
 20
10.4577
 30
0.0
 40
0
 41
0
  0
VERTEX
  8
0
 10
3.34315
 20
10.4892
 30
0.0
 40
0
 41
0
  0
VERTEX
  8
0
 10
3.36165
 20
10.5303
 30
0.0
 40
0
 41
0
  0
VERTEX
  8
0
 10
3.38363
 20
10.5823
 30
0.0
 40
0
 41
0
  0
VERTEX
  8
0
 10
3.39632
 20
10.6119
 30
0.0
 40
0
 41
0
  0
VERTEX
  8
0
 10
3.41021
 20
10.6418
 30
0.0
 40
0
 41
0
  0
VERTEX
  8
0
 10
3.42344
 20
10.6685
 30
0.0
 40
0
 41
0
  0
VERTEX
  8
0
 10
3.43451
 20
10.6885
 30
0.0
 40
0
 41
0
  0
VERTEX
  8
0
 10
3.4541
 20
10.7242
 30
0.0
 40
0
 41
0
  0
VERTEX
  8
0
 10
3.46929
 20
10.7571
 30
0.0
 40
0
 41
0
  0
VERTEX
  8
0
 10
3.49517
 20
10.8084
 30
0.0
 40
0
 41
0
  0
VERTEX
  8
0
 10
3.53162
 20
10.8631
 30
0.0
 40
0
 41
0
  0
VERTEX
  8
0
 10
3.5714
 20
10.9115
 30
0.0
 40
0
 41
0
  0
VERTEX
  8
0
 10
3.60736
 20
10.9436
 30
0.0
 40
0
 41
0
  0
VERTEX
  8
0
 10
3.6301
 20
10.9646
 30
0.0
 40
0
 41
0
  0
VERTEX
  8
0
 10
3.64839
 20
10.9909
 30
0.0
 40
0
 41
0
  0
VERTEX
  8
0
 10
3.66308
 20
11.0148
 30
0.0
 40
0
 41
0
  0
VERTEX
  8
0
 10
3.67725
 20
11.0296
 30
0.0
 40
0
 41
0
  0
VERTEX
  8
0
 10
3.69038
 20
11.0338
 30
0.0
 40
0
 41
0
  0
VERTEX
  8
0
 10
3.70156
 20
11.0229
 30
0.0
 40
0
 41
0
  0
VERTEX
  8
0
 10
3.70899
 20
11.0095
 30
0.0
 40
0
 41
0
  0
VERTEX
  8
0
 10
3.71213
 20
10.9984
 30
0.0
 40
0
 41
0
  0
VERTEX
  8
0
 10
3.70969
 20
10.99
 30
0.0
 40
0
 41
0
  0
VERTEX
  8
0
 10
3.70335
 20
10.975
 30
0.0
 40
0
 41
0
  0
VERTEX
  8
0
 10
3.69417
 20
10.9559
 30
0.0
 40
0
 41
0
  0
VERTEX
  8
0
 10
3.68354
 20
10.9351
 30
0.0
 40
0
 41
0
  0
VERTEX
  8
0
 10
3.67264
 20
10.9148
 30
0.0
 40
0
 41
0
  0
VERTEX
  8
0
 10
3.6626
 20
10.8973
 30
0.0
 40
0
 41
0
  0
VERTEX
  8
0
 10
3.65479
 20
10.8851
 30
0.0
 40
0
 41
0
  0
VERTEX
  8
0
 10
3.65039
 20
10.8805
 30
0.0
 40
0
 41
0
  0
VERTEX
  8
0
 10
3.64264
 20
10.8729
 30
0.0
 40
0
 41
0
  0
VERTEX
  8
0
 10
3.62782
 20
10.852
 30
0.0
 40
0
 41
0
  0
VERTEX
  8
0
 10
3.60792
 20
10.8205
 30
0.0
 40
0
 41
0
  0
VERTEX
  8
0
 10
3.58464
 20
10.7813
 30
0.0
 40
0
 41
0
  0
VERTEX
  8
0
 10
3.56694
 20
10.7534
 30
0.0
 40
0
 41
0
  0
VERTEX
  8
0
 10
3.55214
 20
10.7343
 30
0.0
 40
0
 41
0
  0
VERTEX
  8
0
 10
3.53788
 20
10.7138
 30
0.0
 40
0
 41
0
  0
VERTEX
  8
0
 10
3.52169
 20
10.6827
 30
0.0
 40
0
 41
0
  0
VERTEX
  8
0
 10
3.5025
 20
10.6465
 30
0.0
 40
0
 41
0
  0
VERTEX
  8
0
 10
3.48122
 20
10.6138
 30
0.0
 40
0
 41
0
  0
VERTEX
  8
0
 10
3.46506
 20
10.5897
 30
0.0
 40
0
 41
0
  0
VERTEX
  8
0
 10
3.45839
 20
10.574
 30
0.0
 40
0
 41
0
  0
VERTEX
  8
0
 10
3.45156
 20
10.5507
 30
0.0
 40
0
 41
0
  0
VERTEX
  8
0
 10
3.43528
 20
10.5081
 30
0.0
 40
0
 41
0
  0
VERTEX
  8
0
 10
3.4165
 20
10.4553
 30
0.0
 40
0
 41
0
  0
VERTEX
  8
0
 10
3.40375
 20
10.4073
 30
0.0
 40
0
 41
0
  0
VERTEX
  8
0
 10
3.39611
 20
10.3668
 30
0.0
 40
0
 41
0
  0
VERTEX
  8
0
 10
3.38954
 20
10.3319
 30
0.0
 40
0
 41
0
  0
VERTEX
  8
0
 10
3.38921
 20
10.1953
 30
0.0
 40
0
 41
0
  0
VERTEX
  8
0
 10
3.43397
 20
10.0177
 30
0.0
 40
0
 41
0
  0
VERTEX
  8
0
 10
3.49186
 20
9.89031
 30
0.0
 40
0
 41
0
  0
VERTEX
  8
0
 10
3.58762
 20
9.74507
 30
0.0
 40
0
 41
0
  0
VERTEX
  8
0
 10
3.60319
 20
9.71289
 30
0.0
 40
0
 41
0
  0
VERTEX
  8
0
 10
3.61897
 20
9.66482
 30
0.0
 40
0
 41
0
  0
VERTEX
  8
0
 10
3.62522
 20
9.64182
 30
0.0
 40
0
 41
0
  0
VERTEX
  8
0
 10
3.63086
 20
9.62332
 30
0.0
 40
0
 41
0
  0
VERTEX
  8
0
 10
3.63704
 20
9.60753
 30
0.0
 40
0
 41
0
  0
VERTEX
  8
0
 10
3.64486
 20
9.5925
 30
0.0
 40
0
 41
0
  0
VERTEX
  8
0
 10
3.65549
 20
9.57633
 30
0.0
 40
0
 41
0
  0
VERTEX
  8
0
 10
3.67008
 20
9.55712
 30
0.0
 40
0
 41
0
  0
VERTEX
  8
0
 10
3.68967
 20
9.53299
 30
0.0
 40
0
 41
0
  0
VERTEX
  8
0
 10
3.7155
 20
9.50196
 30
0.0
 40
0
 41
0
  0
VERTEX
  8
0
 10
3.7564
 20
9.45003
 30
0.0
 40
0
 41
0
  0
VERTEX
  8
0
 10
3.785
 20
9.40647
 30
0.0
 40
0
 41
0
  0
VERTEX
  8
0
 10
3.803
 20
9.36817
 30
0.0
 40
0
 41
0
  0
VERTEX
  8
0
 10
3.81222
 20
9.33192
 30
0.0
 40
0
 41
0
  0
VERTEX
  8
0
 10
3.81315
 20
9.29476
 30
0.0
 40
0
 41
0
  0
VERTEX
  8
0
 10
3.80735
 20
9.24724
 30
0.0
 40
0
 41
0
  0
VERTEX
  8
0
 10
3.79557
 20
9.19407
 30
0.0
 40
0
 41
0
  0
VERTEX
  8
0
 10
3.77864
 20
9.13975
 30
0.0
 40
0
 41
0
  0
VERTEX
  8
0
 10
3.757
 20
9.02561
 30
0.0
 40
0
 41
0
  0
VERTEX
  8
0
 10
3.77692
 20
8.90213
 30
0.0
 40
0
 41
0
  0
VERTEX
  8
0
 10
3.79313
 20
8.85465
 30
0.0
 40
0
 41
0
  0
VERTEX
  8
0
 10
3.81451
 20
8.81222
 30
0.0
 40
0
 41
0
  0
VERTEX
  8
0
 10
3.84787
 20
8.7634
 30
0.0
 40
0
 41
0
  0
VERTEX
  8
0
 10
3.90017
 20
8.6965
 30
0.0
 40
0
 41
0
  0
VERTEX
  8
0
 10
3.92572
 20
8.66379
 30
0.0
 40
0
 41
0
  0
VERTEX
  8
0
 10
3.94889
 20
8.63254
 30
0.0
 40
0
 41
0
  0
VERTEX
  8
0
 10
3.96712
 20
8.60633
 30
0.0
 40
0
 41
0
  0
VERTEX
  8
0
 10
3.97781
 20
8.58865
 30
0.0
 40
0
 41
0
  0
VERTEX
  8
0
 10
4.01546
 20
8.45458
 30
0.0
 40
0
 41
0
  0
VERTEX
  8
0
 10
4.00917
 20
8.31922
 30
0.0
 40
0
 41
0
  0
VERTEX
  8
0
 10
4.00174
 20
8.29249
 30
0.0
 40
0
 41
0
  0
VERTEX
  8
0
 10
3.9955
 20
8.278
 30
0.0
 40
0
 41
0
  0
VERTEX
  8
0
 10
3.98785
 20
8.27192
 30
0.0
 40
0
 41
0
  0
VERTEX
  8
0
 10
3.97613
 20
8.27029
 30
0.0
 40
0
 41
0
  0
VERTEX
  8
0
 10
3.95697
 20
8.27056
 30
0.0
 40
0
 41
0
  0
VERTEX
  8
0
 10
3.93989
 20
8.27251
 30
0.0
 40
0
 41
0
  0
SEQEND
 8
0
  0
POLYLINE
  8
0
 62
     0
 66
     1
 10
0
 20
0
 30
0.0
 70
     1
 40
0
 41
0
  0
VERTEX
  8
0
 10
5.60135
 20
8.39128
 30
0.0
 40
0
 41
0
  0
VERTEX
  8
0
 10
5.60215
 20
8.41406
 30
0.0
 40
0
 41
0
  0
VERTEX
  8
0
 10
5.61762
 20
8.44168
 30
0.0
 40
0
 41
0
  0
VERTEX
  8
0
 10
5.63488
 20
8.45546
 30
0.0
 40
0
 41
0
  0
VERTEX
  8
0
 10
5.66075
 20
8.4706
 30
0.0
 40
0
 41
0
  0
VERTEX
  8
0
 10
5.68712
 20
8.48697
 30
0.0
 40
0
 41
0
  0
VERTEX
  8
0
 10
5.70578
 20
8.50353
 30
0.0
 40
0
 41
0
  0
VERTEX
  8
0
 10
5.72314
 20
8.52115
 30
0.0
 40
0
 41
0
  0
VERTEX
  8
0
 10
5.74556
 20
8.53803
 30
0.0
 40
0
 41
0
  0
VERTEX
  8
0
 10
5.76758
 20
8.55078
 30
0.0
 40
0
 41
0
  0
VERTEX
  8
0
 10
5.78407
 20
8.55578
 30
0.0
 40
0
 41
0
  0
VERTEX
  8
0
 10
5.79335
 20
8.55236
 30
0.0
 40
0
 41
0
  0
VERTEX
  8
0
 10
5.79682
 20
8.54308
 30
0.0
 40
0
 41
0
  0
VERTEX
  8
0
 10
5.79443
 20
8.52604
 30
0.0
 40
0
 41
0
  0
VERTEX
  8
0
 10
5.78868
 20
8.50776
 30
0.0
 40
0
 41
0
  0
VERTEX
  8
0
 10
5.78147
 20
8.49317
 30
0.0
 40
0
 41
0
  0
VERTEX
  8
0
 10
5.77479
 20
8.48719
 30
0.0
 40
0
 41
0
  0
VERTEX
  8
0
 10
5.75851
 20
8.48101
 30
0.0
 40
0
 41
0
  0
VERTEX
  8
0
 10
5.73182
 20
8.46474
 30
0.0
 40
0
 41
0
  0
VERTEX
  8
0
 10
5.70019
 20
8.44217
 30
0.0
 40
0
 41
0
  0
VERTEX
  8
0
 10
5.66922
 20
8.41694
 30
0.0
 40
0
 41
0
  0
VERTEX
  8
0
 10
5.64475
 20
8.39768
 30
0.0
 40
0
 41
0
  0
VERTEX
  8
0
 10
5.62517
 20
8.38693
 30
0.0
 40
0
 41
0
  0
VERTEX
  8
0
 10
5.61068
 20
8.38476
 30
0.0
 40
0
 41
0
  0
VERTEX
  8
0
 10
5.60135
 20
8.39128
 30
0.0
 40
0
 41
0
  0
SEQEND
 8
0
  0
POLYLINE
  8
0
 62
     0
 66
     1
 10
0
 20
0
 30
0.0
 70
     1
 40
0
 41
0
  0
VERTEX
  8
0
 10
4.61219
 20
8.42389
 30
0.0
 40
0
 41
0
  0
VERTEX
  8
0
 10
4.57514
 20
8.46653
 30
0.0
 40
0
 41
0
  0
VERTEX
  8
0
 10
4.5701
 20
8.50478
 30
0.0
 40
0
 41
0
  0
VERTEX
  8
0
 10
4.56858
 20
8.56532
 30
0.0
 40
0
 41
0
  0
VERTEX
  8
0
 10
4.57058
 20
8.62864
 30
0.0
 40
0
 41
0
  0
VERTEX
  8
0
 10
4.57601
 20
8.67518
 30
0.0
 40
0
 41
0
  0
VERTEX
  8
0
 10
4.58356
 20
8.71539
 30
0.0
 40
0
 41
0
  0
VERTEX
  8
0
 10
4.58664
 20
8.75108
 30
0.0
 40
0
 41
0
  0
VERTEX
  8
0
 10
4.58535
 20
8.7876
 30
0.0
 40
0
 41
0
  0
VERTEX
  8
0
 10
4.57986
 20
8.83008
 30
0.0
 40
0
 41
0
  0
VERTEX
  8
0
 10
4.57189
 20
8.89757
 30
0.0
 40
0
 41
0
  0
VERTEX
  8
0
 10
4.56749
 20
8.96815
 30
0.0
 40
0
 41
0
  0
VERTEX
  8
0
 10
4.56392
 20
9.0224
 30
0.0
 40
0
 41
0
  0
VERTEX
  8
0
 10
4.55817
 20
9.0504
 30
0.0
 40
0
 41
0
  0
VERTEX
  8
0
 10
4.54953
 20
9.06532
 30
0.0
 40
0
 41
0
  0
VERTEX
  8
0
 10
4.54313
 20
9.08328
 30
0.0
 40
0
 41
0
  0
VERTEX
  8
0
 10
4.54021
 20
9.10004
 30
0.0
 40
0
 41
0
  0
VERTEX
  8
0
 10
4.54183
 20
9.11117
 30
0.0
 40
0
 41
0
  0
VERTEX
  8
0
 10
4.54975
 20
9.1154
 30
0.0
 40
0
 41
0
  0
VERTEX
  8
0
 10
4.56483
 20
9.10699
 30
0.0
 40
0
 41
0
  0
VERTEX
  8
0
 10
4.57747
 20
9.09412
 30
0.0
 40
0
 41
0
  0
VERTEX
  8
0
 10
4.58794
 20
9.07731
 30
0.0
 40
0
 41
0
  0
VERTEX
  8
0
 10
4.59397
 20
9.06108
 30
0.0
 40
0
 41
0
  0
VERTEX
  8
0
 10
4.59347
 20
9.04975
 30
0.0
 40
0
 41
0
  0
VERTEX
  8
0
 10
4.595
 20
9.03879
 30
0.0
 40
0
 41
0
  0
VERTEX
  8
0
 10
4.60319
 20
9.01953
 30
0.0
 40
0
 41
0
  0
VERTEX
  8
0
 10
4.61361
 20
8.98969
 30
0.0
 40
0
 41
0
  0
VERTEX
  8
0
 10
4.62076
 20
8.95324
 30
0.0
 40
0
 41
0
  0
VERTEX
  8
0
 10
4.62804
 20
8.91607
 30
0.0
 40
0
 41
0
  0
VERTEX
  8
0
 10
4.63894
 20
8.88444
 30
0.0
 40
0
 41
0
  0
VERTEX
  8
0
 10
4.64312
 20
8.87511
 30
0.0
 40
0
 41
0
  0
VERTEX
  8
0
 10
4.64621
 20
8.86556
 30
0.0
 40
0
 41
0
  0
VERTEX
  8
0
 10
4.64953
 20
8.81733
 30
0.0
 40
0
 41
0
  0
VERTEX
  8
0
 10
4.6474
 20
8.75037
 30
0.0
 40
0
 41
0
  0
VERTEX
  8
0
 10
4.64524
 20
8.7009
 30
0.0
 40
0
 41
0
  0
VERTEX
  8
0
 10
4.64187
 20
8.59842
 30
0.0
 40
0
 41
0
  0
VERTEX
  8
0
 10
4.64322
 20
8.52576
 30
0.0
 40
0
 41
0
  0
VERTEX
  8
0
 10
4.64979
 20
8.47396
 30
0.0
 40
0
 41
0
  0
VERTEX
  8
0
 10
4.66222
 20
8.43403
 30
0.0
 40
0
 41
0
  0
VERTEX
  8
0
 10
4.66922
 20
8.41678
 30
0.0
 40
0
 41
0
  0
VERTEX
  8
0
 10
4.671
 20
8.40815
 30
0.0
 40
0
 41
0
  0
VERTEX
  8
0
 10
4.65674
 20
8.40506
 30
0.0
 40
0
 41
0
  0
VERTEX
  8
0
 10
4.63732
 20
8.41064
 30
0.0
 40
0
 41
0
  0
VERTEX
  8
0
 10
4.61219
 20
8.42389
 30
0.0
 40
0
 41
0
  0
SEQEND
 8
0
  0
POLYLINE
  8
0
 62
     0
 66
     1
 10
0
 20
0
 30
0.0
 70
     1
 40
0
 41
0
  0
VERTEX
  8
0
 10
6.46674
 20
8.63456
 30
0.0
 40
0
 41
0
  0
VERTEX
  8
0
 10
6.44108
 20
8.64632
 30
0.0
 40
0
 41
0
  0
VERTEX
  8
0
 10
6.39675
 20
8.66194
 30
0.0
 40
0
 41
0
  0
VERTEX
  8
0
 10
6.3534
 20
8.67865
 30
0.0
 40
0
 41
0
  0
VERTEX
  8
0
 10
6.31054
 20
8.70019
 30
0.0
 40
0
 41
0
  0
VERTEX
  8
0
 10
6.27371
 20
8.72342
 30
0.0
 40
0
 41
0
  0
VERTEX
  8
0
 10
6.24837
 20
8.74522
 30
0.0
 40
0
 41
0
  0
VERTEX
  8
0
 10
6.23508
 20
8.75797
 30
0.0
 40
0
 41
0
  0
VERTEX
  8
0
 10
6.21918
 20
8.77046
 30
0.0
 40
0
 41
0
  0
VERTEX
  8
0
 10
6.20139
 20
8.78276
 30
0.0
 40
0
 41
0
  0
VERTEX
  8
0
 10
6.23329
 20
8.84586
 30
0.0
 40
0
 41
0
  0
VERTEX
  8
0
 10
6.24685
 20
8.87207
 30
0.0
 40
0
 41
0
  0
VERTEX
  8
0
 10
6.26031
 20
8.8966
 30
0.0
 40
0
 41
0
  0
VERTEX
  8
0
 10
6.27208
 20
8.91678
 30
0.0
 40
0
 41
0
  0
VERTEX
  8
0
 10
6.28054
 20
8.92979
 30
0.0
 40
0
 41
0
  0
VERTEX
  8
0
 10
6.30572
 20
8.98085
 30
0.0
 40
0
 41
0
  0
VERTEX
  8
0
 10
6.32932
 20
9.06321
 30
0.0
 40
0
 41
0
  0
VERTEX
  8
0
 10
6.34326
 20
9.10889
 30
0.0
 40
0
 41
0
  0
VERTEX
  8
0
 10
6.36242
 20
9.15588
 30
0.0
 40
0
 41
0
  0
VERTEX
  8
0
 10
6.39312
 20
9.26258
 30
0.0
 40
0
 41
0
  0
VERTEX
  8
0
 10
6.38574
 20
9.37022
 30
0.0
 40
0
 41
0
  0
VERTEX
  8
0
 10
6.37121
 20
9.41504
 30
0.0
 40
0
 41
0
  0
VERTEX
  8
0
 10
6.35493
 20
9.44846
 30
0.0
 40
0
 41
0
  0
VERTEX
  8
0
 10
6.32785
 20
9.49067
 30
0.0
 40
0
 41
0
  0
VERTEX
  8
0
 10
6.30436
 20
9.53261
 30
0.0
 40
0
 41
0
  0
VERTEX
  8
0
 10
6.28879
 20
9.56586
 30
0.0
 40
0
 41
0
  0
VERTEX
  8
0
 10
6.28564
 20
9.58182
 30
0.0
 40
0
 41
0
  0
VERTEX
  8
0
 10
6.29719
 20
9.58649
 30
0.0
 40
0
 41
0
  0
VERTEX
  8
0
 10
6.3189
 20
9.59147
 30
0.0
 40
0
 41
0
  0
VERTEX
  8
0
 10
6.36431
 20
9.59017
 30
0.0
 40
0
 41
0
  0
VERTEX
  8
0
 10
6.41396
 20
9.57314
 30
0.0
 40
0
 41
0
  0
VERTEX
  8
0
 10
6.46143
 20
9.54346
 30
0.0
 40
0
 41
0
  0
VERTEX
  8
0
 10
6.5006
 20
9.50407
 30
0.0
 40
0
 41
0
  0
VERTEX
  8
0
 10
6.51725
 20
9.47456
 30
0.0
 40
0
 41
0
  0
VERTEX
  8
0
 10
6.52746
 20
9.43338
 30
0.0
 40
0
 41
0
  0
VERTEX
  8
0
 10
6.53261
 20
9.37131
 30
0.0
 40
0
 41
0
  0
VERTEX
  8
0
 10
6.53401
 20
9.27929
 30
0.0
 40
0
 41
0
  0
VERTEX
  8
0
 10
6.53347
 20
9.21961
 30
0.0
 40
0
 41
0
  0
VERTEX
  8
0
 10
6.53039
 20
9.17844
 30
0.0
 40
0
 41
0
  0
VERTEX
  8
0
 10
6.52257
 20
9.13986
 30
0.0
 40
0
 41
0
  0
VERTEX
  8
0
 10
6.50792
 20
9.08783
 30
0.0
 40
0
 41
0
  0
VERTEX
  8
0
 10
6.48757
 20
9.02229
 30
0.0
 40
0
 41
0
  0
VERTEX
  8
0
 10
6.4706
 20
8.98031
 30
0.0
 40
0
 41
0
  0
VERTEX
  8
0
 10
6.45031
 20
8.94906
 30
0.0
 40
0
 41
0
  0
VERTEX
  8
0
 10
6.42014
 20
8.91558
 30
0.0
 40
0
 41
0
  0
VERTEX
  8
0
 10
6.38797
 20
8.87739
 30
0.0
 40
0
 41
0
  0
VERTEX
  8
0
 10
6.36649
 20
8.84358
 30
0.0
 40
0
 41
0
  0
VERTEX
  8
0
 10
6.35764
 20
8.82351
 30
0.0
 40
0
 41
0
  0
VERTEX
  8
0
 10
6.35915
 20
8.80989
 30
0.0
 40
0
 41
0
  0
VERTEX
  8
0
 10
6.37674
 20
8.79351
 30
0.0
 40
0
 41
0
  0
VERTEX
  8
0
 10
6.41629
 20
8.76508
 30
0.0
 40
0
 41
0
  0
VERTEX
  8
0
 10
6.45122
 20
8.73296
 30
0.0
 40
0
 41
0
  0
VERTEX
  8
0
 10
6.47635
 20
8.69612
 30
0.0
 40
0
 41
0
  0
VERTEX
  8
0
 10
6.48844
 20
8.66086
 30
0.0
 40
0
 41
0
  0
VERTEX
  8
0
 10
6.48415
 20
8.63351
 30
0.0
 40
0
 41
0
  0
VERTEX
  8
0
 10
6.47749
 20
8.62929
 30
0.0
 40
0
 41
0
  0
VERTEX
  8
0
 10
6.46674
 20
8.63456
 30
0.0
 40
0
 41
0
  0
SEQEND
 8
0
  0
POLYLINE
  8
0
 62
     0
 66
     1
 10
0
 20
0
 30
0.0
 70
     1
 40
0
 41
0
  0
VERTEX
  8
0
 10
6.45676
 20
8.75342
 30
0.0
 40
0
 41
0
  0
VERTEX
  8
0
 10
6.43485
 20
8.78336
 30
0.0
 40
0
 41
0
  0
VERTEX
  8
0
 10
6.41689
 20
8.80994
 30
0.0
 40
0
 41
0
  0
VERTEX
  8
0
 10
6.40479
 20
8.83029
 30
0.0
 40
0
 41
0
  0
VERTEX
  8
0
 10
6.40033
 20
8.84153
 30
0.0
 40
0
 41
0
  0
VERTEX
  8
0
 10
6.40429
 20
8.85596
 30
0.0
 40
0
 41
0
  0
VERTEX
  8
0
 10
6.41379
 20
8.87099
 30
0.0
 40
0
 41
0
  0
VERTEX
  8
0
 10
6.42914
 20
8.88271
 30
0.0
 40
0
 41
0
  0
VERTEX
  8
0
 10
6.45042
 20
8.88222
 30
0.0
 40
0
 41
0
  0
VERTEX
  8
0
 10
6.47092
 20
8.87468
 30
0.0
 40
0
 41
0
  0
VERTEX
  8
0
 10
6.48768
 20
8.86257
 30
0.0
 40
0
 41
0
  0
VERTEX
  8
0
 10
6.50597
 20
8.83854
 30
0.0
 40
0
 41
0
  0
VERTEX
  8
0
 10
6.52522
 20
8.80669
 30
0.0
 40
0
 41
0
  0
VERTEX
  8
0
 10
6.54183
 20
8.77344
 30
0.0
 40
0
 41
0
  0
VERTEX
  8
0
 10
6.5524
 20
8.74511
 30
0.0
 40
0
 41
0
  0
VERTEX
  8
0
 10
6.55621
 20
8.72874
 30
0.0
 40
0
 41
0
  0
VERTEX
  8
0
 10
6.55626
 20
8.71783
 30
0.0
 40
0
 41
0
  0
VERTEX
  8
0
 10
6.55165
 20
8.70871
 30
0.0
 40
0
 41
0
  0
VERTEX
  8
0
 10
6.54167
 20
8.69775
 30
0.0
 40
0
 41
0
  0
VERTEX
  8
0
 10
6.52707
 20
8.68468
 30
0.0
 40
0
 41
0
  0
VERTEX
  8
0
 10
6.51818
 20
8.67925
 30
0.0
 40
0
 41
0
  0
VERTEX
  8
0
 10
6.51178
 20
8.68511
 30
0.0
 40
0
 41
0
  0
VERTEX
  8
0
 10
6.49804
 20
8.70107
 30
0.0
 40
0
 41
0
  0
VERTEX
  8
0
 10
6.47906
 20
8.72467
 30
0.0
 40
0
 41
0
  0
VERTEX
  8
0
 10
6.45676
 20
8.75342
 30
0.0
 40
0
 41
0
  0
SEQEND
 8
0
  0
POLYLINE
  8
0
 62
     0
 66
     1
 10
0
 20
0
 30
0.0
 70
     1
 40
0
 41
0
  0
VERTEX
  8
0
 10
5.16911
 20
8.8686
 30
0.0
 40
0
 41
0
  0
VERTEX
  8
0
 10
5.15229
 20
8.88883
 30
0.0
 40
0
 41
0
  0
VERTEX
  8
0
 10
5.14535
 20
8.90104
 30
0.0
 40
0
 41
0
  0
VERTEX
  8
0
 10
5.13807
 20
8.9151
 30
0.0
 40
0
 41
0
  0
VERTEX
  8
0
 10
5.11703
 20
8.94146
 30
0.0
 40
0
 41
0
  0
VERTEX
  8
0
 10
5.08339
 20
8.97874
 30
0.0
 40
0
 41
0
  0
VERTEX
  8
0
 10
5.03825
 20
9.02567
 30
0.0
 40
0
 41
0
  0
VERTEX
  8
0
 10
4.99149
 20
9.07568
 30
0.0
 40
0
 41
0
  0
VERTEX
  8
0
 10
4.95117
 20
9.12326
 30
0.0
 40
0
 41
0
  0
VERTEX
  8
0
 10
4.92285
 20
9.16146
 30
0.0
 40
0
 41
0
  0
VERTEX
  8
0
 10
4.91222
 20
9.18321
 30
0.0
 40
0
 41
0
  0
VERTEX
  8
0
 10
4.92247
 20
9.19601
 30
0.0
 40
0
 41
0
  0
VERTEX
  8
0
 10
4.93278
 20
9.19336
 30
0.0
 40
0
 41
0
  0
VERTEX
  8
0
 10
4.94282
 20
9.18668
 30
0.0
 40
0
 41
0
  0
VERTEX
  8
0
 10
4.96083
 20
9.18261
 30
0.0
 40
0
 41
0
  0
VERTEX
  8
0
 10
4.99007
 20
9.17279
 30
0.0
 40
0
 41
0
  0
VERTEX
  8
0
 10
5.01161
 20
9.16357
 30
0.0
 40
0
 41
0
  0
VERTEX
  8
0
 10
5.02767
 20
9.15158
 30
0.0
 40
0
 41
0
  0
VERTEX
  8
0
 10
5.04428
 20
9.13097
 30
0.0
 40
0
 41
0
  0
VERTEX
  8
0
 10
5.06733
 20
9.09565
 30
0.0
 40
0
 41
0
  0
VERTEX
  8
0
 10
5.10058
 20
9.04568
 30
0.0
 40
0
 41
0
  0
VERTEX
  8
0
 10
5.12999
 20
9.00846
 30
0.0
 40
0
 41
0
  0
VERTEX
  8
0
 10
5.16129
 20
8.9776
 30
0.0
 40
0
 41
0
  0
VERTEX
  8
0
 10
5.20036
 20
8.94661
 30
0.0
 40
0
 41
0
  0
VERTEX
  8
0
 10
5.22894
 20
8.92279
 30
0.0
 40
0
 41
0
  0
VERTEX
  8
0
 10
5.25299
 20
8.898
 30
0.0
 40
0
 41
0
  0
VERTEX
  8
0
 10
5.26947
 20
8.87554
 30
0.0
 40
0
 41
0
  0
VERTEX
  8
0
 10
5.27567
 20
8.85883
 30
0.0
 40
0
 41
0
  0
VERTEX
  8
0
 10
5.26708
 20
8.85499
 30
0.0
 40
0
 41
0
  0
VERTEX
  8
0
 10
5.24653
 20
8.85221
 30
0.0
 40
0
 41
0
  0
VERTEX
  8
0
 10
5.22228
 20
8.84978
 30
0.0
 40
0
 41
0
  0
VERTEX
  8
0
 10
5.20508
 20
8.84651
 30
0.0
 40
0
 41
0
  0
VERTEX
  8
0
 10
5.19
 20
8.84999
 30
0.0
 40
0
 41
0
  0
VERTEX
  8
0
 10
5.16911
 20
8.8686
 30
0.0
 40
0
 41
0
  0
SEQEND
 8
0
  0
POLYLINE
  8
0
 62
     0
 66
     1
 10
0
 20
0
 30
0.0
 70
     1
 40
0
 41
0
  0
VERTEX
  8
0
 10
5.51389
 20
8.92176
 30
0.0
 40
0
 41
0
  0
VERTEX
  8
0
 10
5.49192
 20
8.93138
 30
0.0
 40
0
 41
0
  0
VERTEX
  8
0
 10
5.47542
 20
8.94075
 30
0.0
 40
0
 41
0
  0
VERTEX
  8
0
 10
5.46213
 20
8.95068
 30
0.0
 40
0
 41
0
  0
VERTEX
  8
0
 10
5.43544
 20
8.97065
 30
0.0
 40
0
 41
0
  0
VERTEX
  8
0
 10
5.39914
 20
8.99783
 30
0.0
 40
0
 41
0
  0
VERTEX
  8
0
 10
5.35721
 20
9.02929
 30
0.0
 40
0
 41
0
  0
VERTEX
  8
0
 10
5.31321
 20
9.06228
 30
0.0
 40
0
 41
0
  0
VERTEX
  8
0
 10
5.27154
 20
9.09343
 30
0.0
 40
0
 41
0
  0
VERTEX
  8
0
 10
5.23687
 20
9.11931
 30
0.0
 40
0
 41
0
  0
VERTEX
  8
0
 10
5.21392
 20
9.13633
 30
0.0
 40
0
 41
0
  0
VERTEX
  8
0
 10
5.19319
 20
9.15283
 30
0.0
 40
0
 41
0
  0
VERTEX
  8
0
 10
5.16465
 20
9.17719
 30
0.0
 40
0
 41
0
  0
VERTEX
  8
0
 10
5.13211
 20
9.20606
 30
0.0
 40
0
 41
0
  0
VERTEX
  8
0
 10
5.09933
 20
9.23622
 30
0.0
 40
0
 41
0
  0
VERTEX
  8
0
 10
5.0644
 20
9.26768
 30
0.0
 40
0
 41
0
  0
VERTEX
  8
0
 10
5.02626
 20
9.29992
 30
0.0
 40
0
 41
0
  0
VERTEX
  8
0
 10
4.98947
 20
9.32921
 30
0.0
 40
0
 41
0
  0
VERTEX
  8
0
 10
4.95871
 20
9.35172
 30
0.0
 40
0
 41
0
  0
VERTEX
  8
0
 10
4.92919
 20
9.37294
 30
0.0
 40
0
 41
0
  0
VERTEX
  8
0
 10
4.896
 20
9.3986
 30
0.0
 40
0
 41
0
  0
VERTEX
  8
0
 10
4.86307
 20
9.42546
 30
0.0
 40
0
 41
0
  0
VERTEX
  8
0
 10
4.83458
 20
9.45031
 30
0.0
 40
0
 41
0
  0
VERTEX
  8
0
 10
4.80871
 20
9.47319
 30
0.0
 40
0
 41
0
  0
VERTEX
  8
0
 10
4.78304
 20
9.49479
 30
0.0
 40
0
 41
0
  0
VERTEX
  8
0
 10
4.76042
 20
9.51264
 30
0.0
 40
0
 41
0
  0
VERTEX
  8
0
 10
4.74397
 20
9.52425
 30
0.0
 40
0
 41
0
  0
VERTEX
  8
0
 10
4.71946
 20
9.54249
 30
0.0
 40
0
 41
0
  0
VERTEX
  8
0
 10
4.70281
 20
9.55989
 30
0.0
 40
0
 41
0
  0
VERTEX
  8
0
 10
4.68343
 20
9.57992
 30
0.0
 40
0
 41
0
  0
VERTEX
  8
0
 10
4.64578
 20
9.61263
 30
0.0
 40
0
 41
0
  0
VERTEX
  8
0
 10
4.59842
 20
9.65099
 30
0.0
 40
0
 41
0
  0
VERTEX
  8
0
 10
4.54986
 20
9.68782
 30
0.0
 40
0
 41
0
  0
VERTEX
  8
0
 10
4.52235
 20
9.71371
 30
0.0
 40
0
 41
0
  0
VERTEX
  8
0
 10
4.48844
 20
9.75244
 30
0.0
 40
0
 41
0
  0
VERTEX
  8
0
 10
4.45269
 20
9.79476
 30
0.0
 40
0
 41
0
  0
VERTEX
  8
0
 10
4.4209
 20
9.82894
 30
0.0
 40
0
 41
0
  0
VERTEX
  8
0
 10
4.39404
 20
9.86458
 30
0.0
 40
0
 41
0
  0
VERTEX
  8
0
 10
4.38525
 20
9.89914
 30
0.0
 40
0
 41
0
  0
VERTEX
  8
0
 10
4.39442
 20
9.92969
 30
0.0
 40
0
 41
0
  0
VERTEX
  8
0
 10
4.42165
 20
9.95307
 30
0.0
 40
0
 41
0
  0
VERTEX
  8
0
 10
4.45535
 20
9.96169
 30
0.0
 40
0
 41
0
  0
VERTEX
  8
0
 10
4.51785
 20
9.96533
 30
0.0
 40
0
 41
0
  0
VERTEX
  8
0
 10
4.59321
 20
9.96679
 30
0.0
 40
0
 41
0
  0
VERTEX
  8
0
 10
4.62071
 20
9.93847
 30
0.0
 40
0
 41
0
  0
VERTEX
  8
0
 10
4.63693
 20
9.92258
 30
0.0
 40
0
 41
0
  0
VERTEX
  8
0
 10
4.65983
 20
9.90142
 30
0.0
 40
0
 41
0
  0
VERTEX
  8
0
 10
4.68739
 20
9.87657
 30
0.0
 40
0
 41
0
  0
VERTEX
  8
0
 10
4.71783
 20
9.84972
 30
0.0
 40
0
 41
0
  0
VERTEX
  8
0
 10
4.74918
 20
9.82254
 30
0.0
 40
0
 41
0
  0
VERTEX
  8
0
 10
4.77957
 20
9.79665
 30
0.0
 40
0
 41
0
  0
VERTEX
  8
0
 10
4.80707
 20
9.77376
 30
0.0
 40
0
 41
0
  0
VERTEX
  8
0
 10
4.82992
 20
9.75549
 30
0.0
 40
0
 41
0
  0
VERTEX
  8
0
 10
4.84858
 20
9.74024
 30
0.0
 40
0
 41
0
  0
VERTEX
  8
0
 10
4.87164
 20
9.72038
 30
0.0
 40
0
 41
0
  0
VERTEX
  8
0
 10
4.89611
 20
9.69851
 30
0.0
 40
0
 41
0
  0
VERTEX
  8
0
 10
4.91906
 20
9.67719
 30
0.0
 40
0
 41
0
  0
VERTEX
  8
0
 10
4.96029
 20
9.63818
 30
0.0
 40
0
 41
0
  0
VERTEX
  8
0
 10
5.00597
 20
9.59526
 30
0.0
 40
0
 41
0
  0
VERTEX
  8
0
 10
5.04932
 20
9.55485
 30
0.0
 40
0
 41
0
  0
VERTEX
  8
0
 10
5.08365
 20
9.52317
 30
0.0
 40
0
 41
0
  0
VERTEX
  8
0
 10
5.10579
 20
9.5045
 30
0.0
 40
0
 41
0
  0
VERTEX
  8
0
 10
5.1351
 20
9.4815
 30
0.0
 40
0
 41
0
  0
VERTEX
  8
0
 10
5.15294
 20
9.46789
 30
0.0
 40
0
 41
0
  0
VERTEX
  8
0
 10
5.17638
 20
9.44982
 30
0.0
 40
0
 41
0
  0
VERTEX
  8
0
 10
5.20225
 20
9.42974
 30
0.0
 40
0
 41
0
  0
VERTEX
  8
0
 10
5.22765
 20
9.41
 30
0.0
 40
0
 41
0
  0
VERTEX
  8
0
 10
5.25325
 20
9.39031
 30
0.0
 40
0
 41
0
  0
VERTEX
  8
0
 10
5.27989
 20
9.37017
 30
0.0
 40
0
 41
0
  0
VERTEX
  8
0
 10
5.30436
 20
9.35206
 30
0.0
 40
0
 41
0
  0
VERTEX
  8
0
 10
5.32368
 20
9.33826
 30
0.0
 40
0
 41
0
  0
VERTEX
  8
0
 10
5.38558
 20
9.29878
 30
0.0
 40
0
 41
0
  0
VERTEX
  8
0
 10
5.48161
 20
9.2404
 30
0.0
 40
0
 41
0
  0
VERTEX
  8
0
 10
5.57796
 20
9.18343
 30
0.0
 40
0
 41
0
  0
VERTEX
  8
0
 10
5.64085
 20
9.14811
 30
0.0
 40
0
 41
0
  0
VERTEX
  8
0
 10
5.67339
 20
9.13162
 30
0.0
 40
0
 41
0
  0
VERTEX
  8
0
 10
5.67339
 20
9.08339
 30
0.0
 40
0
 41
0
  0
VERTEX
  8
0
 10
5.67339
 20
9.03515
 30
0.0
 40
0
 41
0
  0
VERTEX
  8
0
 10
5.70053
 20
9.05697
 30
0.0
 40
0
 41
0
  0
VERTEX
  8
0
 10
5.72863
 20
9.08371
 30
0.0
 40
0
 41
0
  0
VERTEX
  8
0
 10
5.75819
 20
9.11729
 30
0.0
 40
0
 41
0
  0
VERTEX
  8
0
 10
5.78347
 20
9.14854
 30
0.0
 40
0
 41
0
  0
VERTEX
  8
0
 10
5.80154
 20
9.16954
 30
0.0
 40
0
 41
0
  0
VERTEX
  8
0
 10
5.81922
 20
9.1914
 30
0.0
 40
0
 41
0
  0
VERTEX
  8
0
 10
5.83882
 20
9.22017
 30
0.0
 40
0
 41
0
  0
VERTEX
  8
0
 10
5.85732
 20
9.25125
 30
0.0
 40
0
 41
0
  0
VERTEX
  8
0
 10
5.87185
 20
9.27989
 30
0.0
 40
0
 41
0
  0
VERTEX
  8
0
 10
5.89899
 20
9.3201
 30
0.0
 40
0
 41
0
  0
VERTEX
  8
0
 10
5.95236
 20
9.37631
 30
0.0
 40
0
 41
0
  0
VERTEX
  8
0
 10
5.98697
 20
9.40907
 30
0.0
 40
0
 41
0
  0
VERTEX
  8
0
 10
6.01042
 20
9.42854
 30
0.0
 40
0
 41
0
  0
VERTEX
  8
0
 10
6.02686
 20
9.43799
 30
0.0
 40
0
 41
0
  0
VERTEX
  8
0
 10
6.04064
 20
9.44043
 30
0.0
 40
0
 41
0
  0
VERTEX
  8
0
 10
6.06256
 20
9.43756
 30
0.0
 40
0
 41
0
  0
VERTEX
  8
0
 10
6.08599
 20
9.43039
 30
0.0
 40
0
 41
0
  0
VERTEX
  8
0
 10
6.10465
 20
9.42139
 30
0.0
 40
0
 41
0
  0
VERTEX
  8
0
 10
6.11231
 20
9.41297
 30
0.0
 40
0
 41
0
  0
VERTEX
  8
0
 10
6.10314
 20
9.396
 30
0.0
 40
0
 41
0
  0
VERTEX
  8
0
 10
6.08111
 20
9.36572
 30
0.0
 40
0
 41
0
  0
VERTEX
  8
0
 10
6.05404
 20
9.33257
 30
0.0
 40
0
 41
0
  0
VERTEX
  8
0
 10
6.03006
 20
9.30669
 30
0.0
 40
0
 41
0
  0
VERTEX
  8
0
 10
6.01085
 20
9.285
 30
0.0
 40
0
 41
0
  0
VERTEX
  8
0
 10
5.99556
 20
9.26167
 30
0.0
 40
0
 41
0
  0
VERTEX
  8
0
 10
5.97917
 20
9.23546
 30
0.0
 40
0
 41
0
  0
VERTEX
  8
0
 10
5.95742
 20
9.20682
 30
0.0
 40
0
 41
0
  0
VERTEX
  8
0
 10
5.92643
 20
9.16667
 30
0.0
 40
0
 41
0
  0
VERTEX
  8
0
 10
5.89735
 20
9.12261
 30
0.0
 40
0
 41
0
  0
VERTEX
  8
0
 10
5.87267
 20
9.07878
 30
0.0
 40
0
 41
0
  0
VERTEX
  8
0
 10
5.85487
 20
9.03917
 30
0.0
 40
0
 41
0
  0
VERTEX
  8
0
 10
5.84619
 20
9.01633
 30
0.0
 40
0
 41
0
  0
VERTEX
  8
0
 10
5.8406
 20
8.99957
 30
0.0
 40
0
 41
0
  0
VERTEX
  8
0
 10
5.83931
 20
8.98801
 30
0.0
 40
0
 41
0
  0
VERTEX
  8
0
 10
5.84337
 20
8.98079
 30
0.0
 40
0
 41
0
  0
VERTEX
  8
0
 10
5.854
 20
8.97711
 30
0.0
 40
0
 41
0
  0
VERTEX
  8
0
 10
5.87235
 20
8.97607
 30
0.0
 40
0
 41
0
  0
VERTEX
  8
0
 10
5.89953
 20
8.97683
 30
0.0
 40
0
 41
0
  0
VERTEX
  8
0
 10
5.93668
 20
8.97857
 30
0.0
 40
0
 41
0
  0
VERTEX
  8
0
 10
5.99175
 20
8.98068
 30
0.0
 40
0
 41
0
  0
VERTEX
  8
0
 10
6.02425
 20
8.98025
 30
0.0
 40
0
 41
0
  0
VERTEX
  8
0
 10
6.04346
 20
8.97646
 30
0.0
 40
0
 41
0
  0
VERTEX
  8
0
 10
6.05881
 20
8.96847
 30
0.0
 40
0
 41
0
  0
VERTEX
  8
0
 10
6.07904
 20
8.95438
 30
0.0
 40
0
 41
0
  0
VERTEX
  8
0
 10
6.09369
 20
8.94103
 30
0.0
 40
0
 41
0
  0
VERTEX
  8
0
 10
6.10118
 20
8.93012
 30
0.0
 40
0
 41
0
  0
VERTEX
  8
0
 10
6.09983
 20
8.92344
 30
0.0
 40
0
 41
0
  0
VERTEX
  8
0
 10
6.08718
 20
8.92046
 30
0.0
 40
0
 41
0
  0
VERTEX
  8
0
 10
6.06196
 20
8.91911
 30
0.0
 40
0
 41
0
  0
VERTEX
  8
0
 10
6.02453
 20
8.91938
 30
0.0
 40
0
 41
0
  0
VERTEX
  8
0
 10
5.97515
 20
8.92128
 30
0.0
 40
0
 41
0
  0
VERTEX
  8
0
 10
5.92128
 20
8.92144
 30
0.0
 40
0
 41
0
  0
VERTEX
  8
0
 10
5.87369
 20
8.91769
 30
0.0
 40
0
 41
0
  0
VERTEX
  8
0
 10
5.83843
 20
8.91456
 30
0.0
 40
0
 41
0
  0
VERTEX
  8
0
 10
5.82124
 20
8.91894
 30
0.0
 40
0
 41
0
  0
VERTEX
  8
0
 10
5.80849
 20
8.92622
 30
0.0
 40
0
 41
0
  0
VERTEX
  8
0
 10
5.79081
 20
8.92969
 30
0.0
 40
0
 41
0
  0
VERTEX
  8
0
 10
5.76574
 20
8.92958
 30
0.0
 40
0
 41
0
  0
VERTEX
  8
0
 10
5.73074
 20
8.926
 30
0.0
 40
0
 41
0
  0
VERTEX
  8
0
 10
5.65815
 20
8.91851
 30
0.0
 40
0
 41
0
  0
VERTEX
  8
0
 10
5.59478
 20
8.91525
 30
0.0
 40
0
 41
0
  0
VERTEX
  8
0
 10
5.54514
 20
8.91629
 30
0.0
 40
0
 41
0
  0
VERTEX
  8
0
 10
5.51389
 20
8.92176
 30
0.0
 40
0
 41
0
  0
SEQEND
 8
0
  0
POLYLINE
  8
0
 62
     0
 66
     1
 10
0
 20
0
 30
0.0
 70
     1
 40
0
 41
0
  0
VERTEX
  8
0
 10
5.39225
 20
9.14253
 30
0.0
 40
0
 41
0
  0
VERTEX
  8
0
 10
5.39919
 20
9.14893
 30
0.0
 40
0
 41
0
  0
VERTEX
  8
0
 10
5.40224
 20
9.13824
 30
0.0
 40
0
 41
0
  0
VERTEX
  8
0
 10
5.40896
 20
9.13183
 30
0.0
 40
0
 41
0
  0
VERTEX
  8
0
 10
5.41965
 20
9.13992
 30
0.0
 40
0
 41
0
  0
VERTEX
  8
0
 10
5.41004
 20
9.15533
 30
0.0
 40
0
 41
0
  0
VERTEX
  8
0
 10
5.38672
 20
9.17839
 30
0.0
 40
0
 41
0
  0
VERTEX
  8
0
 10
5.35796
 20
9.20171
 30
0.0
 40
0
 41
0
  0
VERTEX
  8
0
 10
5.33203
 20
9.21799
 30
0.0
 40
0
 41
0
  0
VERTEX
  8
0
 10
5.30192
 20
9.23801
 30
0.0
 40
0
 41
0
  0
VERTEX
  8
0
 10
5.26535
 20
9.26921
 30
0.0
 40
0
 41
0
  0
VERTEX
  8
0
 10
5.23188
 20
9.2991
 30
0.0
 40
0
 41
0
  0
VERTEX
  8
0
 10
5.20925
 20
9.31608
 30
0.0
 40
0
 41
0
  0
VERTEX
  8
0
 10
5.18946
 20
9.32156
 30
0.0
 40
0
 41
0
  0
VERTEX
  8
0
 10
5.16363
 20
9.32368
 30
0.0
 40
0
 41
0
  0
VERTEX
  8
0
 10
5.14122
 20
9.32232
 30
0.0
 40
0
 41
0
  0
VERTEX
  8
0
 10
5.13167
 20
9.31733
 30
0.0
 40
0
 41
0
  0
VERTEX
  8
0
 10
5.14057
 20
9.30658
 30
0.0
 40
0
 41
0
  0
VERTEX
  8
0
 10
5.162
 20
9.28993
 30
0.0
 40
0
 41
0
  0
VERTEX
  8
0
 10
5.18608
 20
9.27257
 30
0.0
 40
0
 41
0
  0
VERTEX
  8
0
 10
5.20144
 20
9.26019
 30
0.0
 40
0
 41
0
  0
VERTEX
  8
0
 10
5.2169
 20
9.25037
 30
0.0
 40
0
 41
0
  0
VERTEX
  8
0
 10
5.24138
 20
9.23926
 30
0.0
 40
0
 41
0
  0
VERTEX
  8
0
 10
5.27138
 20
9.22174
 30
0.0
 40
0
 41
0
  0
VERTEX
  8
0
 10
5.29964
 20
9.1926
 30
0.0
 40
0
 41
0
  0
VERTEX
  8
0
 10
5.33111
 20
9.15929
 30
0.0
 40
0
 41
0
  0
VERTEX
  8
0
 10
5.36106
 20
9.13764
 30
0.0
 40
0
 41
0
  0
VERTEX
  8
0
 10
5.3834
 20
9.13097
 30
0.0
 40
0
 41
0
  0
VERTEX
  8
0
 10
5.39225
 20
9.14253
 30
0.0
 40
0
 41
0
  0
SEQEND
 8
0
  0
POLYLINE
  8
0
 62
     0
 66
     1
 10
0
 20
0
 30
0.0
 70
     1
 40
0
 41
0
  0
VERTEX
  8
0
 10
4.73178
 20
9.61074
 30
0.0
 40
0
 41
0
  0
VERTEX
  8
0
 10
4.74718
 20
9.61638
 30
0.0
 40
0
 41
0
  0
VERTEX
  8
0
 10
4.76324
 20
9.61871
 30
0.0
 40
0
 41
0
  0
VERTEX
  8
0
 10
4.77843
 20
9.62267
 30
0.0
 40
0
 41
0
  0
VERTEX
  8
0
 10
4.79183
 20
9.63206
 30
0.0
 40
0
 41
0
  0
VERTEX
  8
0
 10
4.8004
 20
9.64794
 30
0.0
 40
0
 41
0
  0
VERTEX
  8
0
 10
4.79406
 20
9.67492
 30
0.0
 40
0
 41
0
  0
VERTEX
  8
0
 10
4.78239
 20
9.69874
 30
0.0
 40
0
 41
0
  0
VERTEX
  8
0
 10
4.76764
 20
9.71257
 30
0.0
 40
0
 41
0
  0
VERTEX
  8
0
 10
4.74479
 20
9.72342
 30
0.0
 40
0
 41
0
  0
VERTEX
  8
0
 10
4.71317
 20
9.73801
 30
0.0
 40
0
 41
0
  0
VERTEX
  8
0
 10
4.67822
 20
9.75928
 30
0.0
 40
0
 41
0
  0
VERTEX
  8
0
 10
4.65147
 20
9.79129
 30
0.0
 40
0
 41
0
  0
VERTEX
  8
0
 10
4.62153
 20
9.8265
 30
0.0
 40
0
 41
0
  0
VERTEX
  8
0
 10
4.58306
 20
9.86063
 30
0.0
 40
0
 41
0
  0
VERTEX
  8
0
 10
4.54801
 20
9.8871
 30
0.0
 40
0
 41
0
  0
VERTEX
  8
0
 10
4.52636
 20
9.90381
 30
0.0
 40
0
 41
0
  0
VERTEX
  8
0
 10
4.51085
 20
9.91265
 30
0.0
 40
0
 41
0
  0
VERTEX
  8
0
 10
4.5076
 20
9.89751
 30
0.0
 40
0
 41
0
  0
VERTEX
  8
0
 10
4.51183
 20
9.88135
 30
0.0
 40
0
 41
0
  0
VERTEX
  8
0
 10
4.52214
 20
9.8649
 30
0.0
 40
0
 41
0
  0
VERTEX
  8
0
 10
4.54292
 20
9.83908
 30
0.0
 40
0
 41
0
  0
VERTEX
  8
0
 10
4.57264
 20
9.80003
 30
0.0
 40
0
 41
0
  0
VERTEX
  8
0
 10
4.60015
 20
9.76639
 30
0.0
 40
0
 41
0
  0
VERTEX
  8
0
 10
4.62879
 20
9.73687
 30
0.0
 40
0
 41
0
  0
VERTEX
  8
0
 10
4.65375
 20
9.71593
 30
0.0
 40
0
 41
0
  0
VERTEX
  8
0
 10
4.67042
 20
9.7079
 30
0.0
 40
0
 41
0
  0
VERTEX
  8
0
 10
4.67865
 20
9.70383
 30
0.0
 40
0
 41
0
  0
VERTEX
  8
0
 10
4.6894
 20
9.69407
 30
0.0
 40
0
 41
0
  0
VERTEX
  8
0
 10
4.6984
 20
9.67719
 30
0.0
 40
0
 41
0
  0
VERTEX
  8
0
 10
4.69476
 20
9.64908
 30
0.0
 40
0
 41
0
  0
VERTEX
  8
0
 10
4.69183
 20
9.62304
 30
0.0
 40
0
 41
0
  0
VERTEX
  8
0
 10
4.69433
 20
9.60156
 30
0.0
 40
0
 41
0
  0
VERTEX
  8
0
 10
4.70085
 20
9.59
 30
0.0
 40
0
 41
0
  0
VERTEX
  8
0
 10
4.7099
 20
9.59364
 30
0.0
 40
0
 41
0
  0
VERTEX
  8
0
 10
4.71913
 20
9.60243
 30
0.0
 40
0
 41
0
  0
VERTEX
  8
0
 10
4.73178
 20
9.61074
 30
0.0
 40
0
 41
0
  0
SEQEND
 8
0
  0
POLYLINE
  8
0
 62
     0
 66
     1
 10
0
 20
0
 30
0.0
 70
     1
 40
0
 41
0
  0
VERTEX
  8
0
 10
4.81
 20
9.236
 30
0.0
 40
0
 41
0
  0
VERTEX
  8
0
 10
4.76671
 20
9.26215
 30
0.0
 40
0
 41
0
  0
VERTEX
  8
0
 10
4.72396
 20
9.29492
 30
0.0
 40
0
 41
0
  0
VERTEX
  8
0
 10
4.68549
 20
9.33111
 30
0.0
 40
0
 41
0
  0
VERTEX
  8
0
 10
4.65506
 20
9.36746
 30
0.0
 40
0
 41
0
  0
VERTEX
  8
0
 10
4.63422
 20
9.39475
 30
0.0
 40
0
 41
0
  0
VERTEX
  8
0
 10
4.62283
 20
9.40608
 30
0.0
 40
0
 41
0
  0
VERTEX
  8
0
 10
4.60818
 20
9.42051
 30
0.0
 40
0
 41
0
  0
VERTEX
  8
0
 10
4.58285
 20
9.45649
 30
0.0
 40
0
 41
0
  0
VERTEX
  8
0
 10
4.55376
 20
9.50325
 30
0.0
 40
0
 41
0
  0
VERTEX
  8
0
 10
4.52806
 20
9.55013
 30
0.0
 40
0
 41
0
  0
VERTEX
  8
0
 10
4.49854
 20
9.60389
 30
0.0
 40
0
 41
0
  0
VERTEX
  8
0
 10
4.46847
 20
9.65115
 30
0.0
 40
0
 41
0
  0
VERTEX
  8
0
 10
4.44325
 20
9.69428
 30
0.0
 40
0
 41
0
  0
VERTEX
  8
0
 10
4.43371
 20
9.72667
 30
0.0
 40
0
 41
0
  0
VERTEX
  8
0
 10
4.44021
 20
9.74149
 30
0.0
 40
0
 41
0
  0
VERTEX
  8
0
 10
4.46338
 20
9.73199
 30
0.0
 40
0
 41
0
  0
VERTEX
  8
0
 10
4.48589
 20
9.71625
 30
0.0
 40
0
 41
0
  0
VERTEX
  8
0
 10
4.52132
 20
9.69254
 30
0.0
 40
0
 41
0
  0
VERTEX
  8
0
 10
4.53728
 20
9.68181
 30
0.0
 40
0
 41
0
  0
VERTEX
  8
0
 10
4.55057
 20
9.67165
 30
0.0
 40
0
 41
0
  0
VERTEX
  8
0
 10
4.56261
 20
9.66026
 30
0.0
 40
0
 41
0
  0
VERTEX
  8
0
 10
4.57471
 20
9.64578
 30
0.0
 40
0
 41
0
  0
VERTEX
  8
0
 10
4.58838
 20
9.62631
 30
0.0
 40
0
 41
0
  0
VERTEX
  8
0
 10
4.60503
 20
9.59999
 30
0.0
 40
0
 41
0
  0
VERTEX
  8
0
 10
4.62608
 20
9.56494
 30
0.0
 40
0
 41
0
  0
VERTEX
  8
0
 10
4.65294
 20
9.51932
 30
0.0
 40
0
 41
0
  0
VERTEX
  8
0
 10
4.6791
 20
9.47683
 30
0.0
 40
0
 41
0
  0
VERTEX
  8
0
 10
4.70443
 20
9.44069
 30
0.0
 40
0
 41
0
  0
VERTEX
  8
0
 10
4.73193
 20
9.40707
 30
0.0
 40
0
 41
0
  0
VERTEX
  8
0
 10
4.76465
 20
9.37185
 30
0.0
 40
0
 41
0
  0
VERTEX
  8
0
 10
4.79021
 20
9.34472
 30
0.0
 40
0
 41
0
  0
VERTEX
  8
0
 10
4.81293
 20
9.31896
 30
0.0
 40
0
 41
0
  0
VERTEX
  8
0
 10
4.8304
 20
9.29742
 30
0.0
 40
0
 41
0
  0
VERTEX
  8
0
 10
4.84011
 20
9.2831
 30
0.0
 40
0
 41
0
  0
VERTEX
  8
0
 10
4.85069
 20
9.25993
 30
0.0
 40
0
 41
0
  0
VERTEX
  8
0
 10
4.85753
 20
9.23996
 30
0.0
 40
0
 41
0
  0
VERTEX
  8
0
 10
4.86003
 20
9.22521
 30
0.0
 40
0
 41
0
  0
VERTEX
  8
0
 10
4.85764
 20
9.21772
 30
0.0
 40
0
 41
0
  0
VERTEX
  8
0
 10
4.84131
 20
9.22168
 30
0.0
 40
0
 41
0
  0
VERTEX
  8
0
 10
4.81
 20
9.236
 30
0.0
 40
0
 41
0
  0
SEQEND
 8
0
  0
POLYLINE
  8
0
 62
     0
 66
     1
 10
0
 20
0
 30
0.0
 70
     1
 40
0
 41
0
  0
VERTEX
  8
0
 10
4.62164
 20
9.24442
 30
0.0
 40
0
 41
0
  0
VERTEX
  8
0
 10
4.5989
 20
9.26025
 30
0.0
 40
0
 41
0
  0
VERTEX
  8
0
 10
4.57178
 20
9.27561
 30
0.0
 40
0
 41
0
  0
VERTEX
  8
0
 10
4.53504
 20
9.30653
 30
0.0
 40
0
 41
0
  0
VERTEX
  8
0
 10
4.51124
 20
9.35812
 30
0.0
 40
0
 41
0
  0
VERTEX
  8
0
 10
4.50151
 20
9.37804
 30
0.0
 40
0
 41
0
  0
VERTEX
  8
0
 10
4.48535
 20
9.40181
 30
0.0
 40
0
 41
0
  0
VERTEX
  8
0
 10
4.46679
 20
9.43294
 30
0.0
 40
0
 41
0
  0
VERTEX
  8
0
 10
4.45144
 20
9.47038
 30
0.0
 40
0
 41
0
  0
VERTEX
  8
0
 10
4.43425
 20
9.51226
 30
0.0
 40
0
 41
0
  0
VERTEX
  8
0
 10
4.4114
 20
9.55388
 30
0.0
 40
0
 41
0
  0
VERTEX
  8
0
 10
4.38861
 20
9.59412
 30
0.0
 40
0
 41
0
  0
VERTEX
  8
0
 10
4.37185
 20
9.63276
 30
0.0
 40
0
 41
0
  0
VERTEX
  8
0
 10
4.35374
 20
9.67285
 30
0.0
 40
0
 41
0
  0
VERTEX
  8
0
 10
4.3279
 20
9.71664
 30
0.0
 40
0
 41
0
  0
VERTEX
  8
0
 10
4.30886
 20
9.74843
 30
0.0
 40
0
 41
0
  0
VERTEX
  8
0
 10
4.29531
 20
9.77838
 30
0.0
 40
0
 41
0
  0
VERTEX
  8
0
 10
4.28868
 20
9.80214
 30
0.0
 40
0
 41
0
  0
VERTEX
  8
0
 10
4.29069
 20
9.81554
 30
0.0
 40
0
 41
0
  0
VERTEX
  8
0
 10
4.30132
 20
9.81657
 30
0.0
 40
0
 41
0
  0
VERTEX
  8
0
 10
4.32226
 20
9.81418
 30
0.0
 40
0
 41
0
  0
VERTEX
  8
0
 10
4.33746
 20
9.81076
 30
0.0
 40
0
 41
0
  0
VERTEX
  8
0
 10
4.34787
 20
9.80533
 30
0.0
 40
0
 41
0
  0
VERTEX
  8
0
 10
4.35585
 20
9.796
 30
0.0
 40
0
 41
0
  0
VERTEX
  8
0
 10
4.36388
 20
9.78076
 30
0.0
 40
0
 41
0
  0
VERTEX
  8
0
 10
4.37424
 20
9.76183
 30
0.0
 40
0
 41
0
  0
VERTEX
  8
0
 10
4.39247
 20
9.73139
 30
0.0
 40
0
 41
0
  0
VERTEX
  8
0
 10
4.41596
 20
9.69368
 30
0.0
 40
0
 41
0
  0
VERTEX
  8
0
 10
4.44228
 20
9.65283
 30
0.0
 40
0
 41
0
  0
VERTEX
  8
0
 10
4.53614
 20
9.50549
 30
0.0
 40
0
 41
0
  0
VERTEX
  8
0
 10
4.59853
 20
9.39751
 30
0.0
 40
0
 41
0
  0
VERTEX
  8
0
 10
4.6346
 20
9.31912
 30
0.0
 40
0
 41
0
  0
VERTEX
  8
0
 10
4.64963
 20
9.26042
 30
0.0
 40
0
 41
0
  0
VERTEX
  8
0
 10
4.65104
 20
9.23926
 30
0.0
 40
0
 41
0
  0
VERTEX
  8
0
 10
4.64785
 20
9.23008
 30
0.0
 40
0
 41
0
  0
VERTEX
  8
0
 10
4.63851
 20
9.2321
 30
0.0
 40
0
 41
0
  0
VERTEX
  8
0
 10
4.62164
 20
9.24442
 30
0.0
 40
0
 41
0
  0
SEQEND
 8
0
  0
POLYLINE
  8
0
 62
     0
 66
     1
 10
0
 20
0
 30
0.0
 70
     1
 40
0
 41
0
  0
VERTEX
  8
0
 10
1.0925
 20
9.31011
 30
0.0
 40
0
 41
0
  0
VERTEX
  8
0
 10
1.09939
 20
9.317
 30
0.0
 40
0
 41
0
  0
VERTEX
  8
0
 10
1.10623
 20
9.31011
 30
0.0
 40
0
 41
0
  0
VERTEX
  8
0
 10
1.09939
 20
9.30328
 30
0.0
 40
0
 41
0
  0
VERTEX
  8
0
 10
1.0925
 20
9.31011
 30
0.0
 40
0
 41
0
  0
SEQEND
 8
0
  0
POLYLINE
  8
0
 62
     0
 66
     1
 10
0
 20
0
 30
0.0
 70
     1
 40
0
 41
0
  0
VERTEX
  8
0
 10
4.33936
 20
9.32601
 30
0.0
 40
0
 41
0
  0
VERTEX
  8
0
 10
4.33014
 20
9.33328
 30
0.0
 40
0
 41
0
  0
VERTEX
  8
0
 10
4.31549
 20
9.3469
 30
0.0
 40
0
 41
0
  0
VERTEX
  8
0
 10
4.29731
 20
9.36496
 30
0.0
 40
0
 41
0
  0
VERTEX
  8
0
 10
4.27778
 20
9.38558
 30
0.0
 40
0
 41
0
  0
VERTEX
  8
0
 10
4.25863
 20
9.40608
 30
0.0
 40
0
 41
0
  0
VERTEX
  8
0
 10
4.24175
 20
9.42393
 30
0.0
 40
0
 41
0
  0
VERTEX
  8
0
 10
4.22894
 20
9.43718
 30
0.0
 40
0
 41
0
  0
VERTEX
  8
0
 10
4.22206
 20
9.44385
 30
0.0
 40
0
 41
0
  0
VERTEX
  8
0
 10
4.21588
 20
9.45036
 30
0.0
 40
0
 41
0
  0
VERTEX
  8
0
 10
4.20508
 20
9.46283
 30
0.0
 40
0
 41
0
  0
VERTEX
  8
0
 10
4.19125
 20
9.47954
 30
0.0
 40
0
 41
0
  0
VERTEX
  8
0
 10
4.17578
 20
9.49869
 30
0.0
 40
0
 41
0
  0
VERTEX
  8
0
 10
4.14404
 20
9.5446
 30
0.0
 40
0
 41
0
  0
VERTEX
  8
0
 10
4.12993
 20
9.58442
 30
0.0
 40
0
 41
0
  0
VERTEX
  8
0
 10
4.10514
 20
9.65549
 30
0.0
 40
0
 41
0
  0
VERTEX
  8
0
 10
4.05811
 20
9.73031
 30
0.0
 40
0
 41
0
  0
VERTEX
  8
0
 10
4.04058
 20
9.75456
 30
0.0
 40
0
 41
0
  0
VERTEX
  8
0
 10
4.03147
 20
9.77279
 30
0.0
 40
0
 41
0
  0
VERTEX
  8
0
 10
4.02806
 20
9.79368
 30
0.0
 40
0
 41
0
  0
VERTEX
  8
0
 10
4.02756
 20
9.82585
 30
0.0
 40
0
 41
0
  0
VERTEX
  8
0
 10
4.02696
 20
9.85525
 30
0.0
 40
0
 41
0
  0
VERTEX
  8
0
 10
4.02468
 20
9.87463
 30
0.0
 40
0
 41
0
  0
VERTEX
  8
0
 10
4.01975
 20
9.88813
 30
0.0
 40
0
 41
0
  0
VERTEX
  8
0
 10
4.01128
 20
9.90013
 30
0.0
 40
0
 41
0
  0
VERTEX
  8
0
 10
3.99735
 20
9.9266
 30
0.0
 40
0
 41
0
  0
VERTEX
  8
0
 10
3.99018
 20
9.97314
 30
0.0
 40
0
 41
0
  0
VERTEX
  8
0
 10
3.98676
 20
10.0027
 30
0.0
 40
0
 41
0
  0
VERTEX
  8
0
 10
3.98161
 20
10.0242
 30
0.0
 40
0
 41
0
  0
VERTEX
  8
0
 10
3.97287
 20
10.0433
 30
0.0
 40
0
 41
0
  0
VERTEX
  8
0
 10
3.95861
 20
10.0654
 30
0.0
 40
0
 41
0
  0
VERTEX
  8
0
 10
3.93631
 20
10.0996
 30
0.0
 40
0
 41
0
  0
VERTEX
  8
0
 10
3.92469
 20
10.1251
 30
0.0
 40
0
 41
0
  0
VERTEX
  8
0
 10
3.92176
 20
10.1484
 30
0.0
 40
0
 41
0
  0
VERTEX
  8
0
 10
3.92562
 20
10.1763
 30
0.0
 40
0
 41
0
  0
VERTEX
  8
0
 10
3.92925
 20
10.2144
 30
0.0
 40
0
 41
0
  0
VERTEX
  8
0
 10
3.92096
 20
10.257
 30
0.0
 40
0
 41
0
  0
VERTEX
  8
0
 10
3.91287
 20
10.2969
 30
0.0
 40
0
 41
0
  0
VERTEX
  8
0
 10
3.91032
 20
10.3308
 30
0.0
 40
0
 41
0
  0
VERTEX
  8
0
 10
3.90776
 20
10.3632
 30
0.0
 40
0
 41
0
  0
VERTEX
  8
0
 10
3.89996
 20
10.3994
 30
0.0
 40
0
 41
0
  0
VERTEX
  8
0
 10
3.89025
 20
10.4544
 30
0.0
 40
0
 41
0
  0
VERTEX
  8
0
 10
3.8871
 20
10.5233
 30
0.0
 40
0
 41
0
  0
VERTEX
  8
0
 10
3.89051
 20
10.5926
 30
0.0
 40
0
 41
0
  0
VERTEX
  8
0
 10
3.90044
 20
10.6484
 30
0.0
 40
0
 41
0
  0
VERTEX
  8
0
 10
3.91499
 20
10.6866
 30
0.0
 40
0
 41
0
  0
VERTEX
  8
0
 10
3.93235
 20
10.705
 30
0.0
 40
0
 41
0
  0
VERTEX
  8
0
 10
3.94635
 20
10.7128
 30
0.0
 40
0
 41
0
  0
VERTEX
  8
0
 10
3.95404
 20
10.7159
 30
0.0
 40
0
 41
0
  0
VERTEX
  8
0
 10
3.95535
 20
10.7074
 30
0.0
 40
0
 41
0
  0
VERTEX
  8
0
 10
3.954
 20
10.6867
 30
0.0
 40
0
 41
0
  0
VERTEX
  8
0
 10
3.95568
 20
10.646
 30
0.0
 40
0
 41
0
  0
VERTEX
  8
0
 10
3.96442
 20
10.589
 30
0.0
 40
0
 41
0
  0
VERTEX
  8
0
 10
3.97374
 20
10.5279
 30
0.0
 40
0
 41
0
  0
VERTEX
  8
0
 10
3.97689
 20
10.477
 30
0.0
 40
0
 41
0
  0
VERTEX
  8
0
 10
3.97868
 20
10.4389
 30
0.0
 40
0
 41
0
  0
VERTEX
  8
0
 10
3.98481
 20
10.4084
 30
0.0
 40
0
 41
0
  0
VERTEX
  8
0
 10
3.99251
 20
10.3777
 30
0.0
 40
0
 41
0
  0
VERTEX
  8
0
 10
4.00196
 20
10.3286
 30
0.0
 40
0
 41
0
  0
VERTEX
  8
0
 10
4.0101
 20
10.2787
 30
0.0
 40
0
 41
0
  0
VERTEX
  8
0
 10
4.01372
 20
10.2457
 30
0.0
 40
0
 41
0
  0
VERTEX
  8
0
 10
4.02007
 20
10.231
 30
0.0
 40
0
 41
0
  0
VERTEX
  8
0
 10
4.03521
 20
10.206
 30
0.0
 40
0
 41
0
  0
VERTEX
  8
0
 10
4.046
 20
10.1872
 30
0.0
 40
0
 41
0
  0
VERTEX
  8
0
 10
4.05469
 20
10.1657
 30
0.0
 40
0
 41
0
  0
VERTEX
  8
0
 10
4.06207
 20
10.1388
 30
0.0
 40
0
 41
0
  0
VERTEX
  8
0
 10
4.06917
 20
10.1037
 30
0.0
 40
0
 41
0
  0
VERTEX
  8
0
 10
4.07986
 20
10.0479
 30
0.0
 40
0
 41
0
  0
VERTEX
  8
0
 10
4.08908
 20
10.0099
 30
0.0
 40
0
 41
0
  0
VERTEX
  8
0
 10
4.09799
 20
9.98579
 30
0.0
 40
0
 41
0
  0
VERTEX
  8
0
 10
4.10775
 20
9.97157
 30
0.0
 40
0
 41
0
  0
VERTEX
  8
0
 10
4.11382
 20
9.9605
 30
0.0
 40
0
 41
0
  0
VERTEX
  8
0
 10
4.12218
 20
9.93853
 30
0.0
 40
0
 41
0
  0
VERTEX
  8
0
 10
4.13178
 20
9.90886
 30
0.0
 40
0
 41
0
  0
VERTEX
  8
0
 10
4.1415
 20
9.87457
 30
0.0
 40
0
 41
0
  0
VERTEX
  8
0
 10
4.16168
 20
9.80046
 30
0.0
 40
0
 41
0
  0
VERTEX
  8
0
 10
4.17697
 20
9.75097
 30
0.0
 40
0
 41
0
  0
VERTEX
  8
0
 10
4.18961
 20
9.71983
 30
0.0
 40
0
 41
0
  0
VERTEX
  8
0
 10
4.20182
 20
9.70068
 30
0.0
 40
0
 41
0
  0
VERTEX
  8
0
 10
4.21789
 20
9.67443
 30
0.0
 40
0
 41
0
  0
VERTEX
  8
0
 10
4.23611
 20
9.63558
 30
0.0
 40
0
 41
0
  0
VERTEX
  8
0
 10
4.26004
 20
9.588
 30
0.0
 40
0
 41
0
  0
VERTEX
  8
0
 10
4.28988
 20
9.54047
 30
0.0
 40
0
 41
0
  0
VERTEX
  8
0
 10
4.31494
 20
9.50244
 30
0.0
 40
0
 41
0
  0
VERTEX
  8
0
 10
4.33132
 20
9.46935
 30
0.0
 40
0
 41
0
  0
VERTEX
  8
0
 10
4.34028
 20
9.43821
 30
0.0
 40
0
 41
0
  0
VERTEX
  8
0
 10
4.34304
 20
9.40582
 30
0.0
 40
0
 41
0
  0
VERTEX
  8
0
 10
4.3464
 20
9.37642
 30
0.0
 40
0
 41
0
  0
VERTEX
  8
0
 10
4.35499
 20
9.35211
 30
0.0
 40
0
 41
0
  0
VERTEX
  8
0
 10
4.3616
 20
9.33578
 30
0.0
 40
0
 41
0
  0
VERTEX
  8
0
 10
4.36068
 20
9.32497
 30
0.0
 40
0
 41
0
  0
VERTEX
  8
0
 10
4.35292
 20
9.32129
 30
0.0
 40
0
 41
0
  0
VERTEX
  8
0
 10
4.33936
 20
9.32601
 30
0.0
 40
0
 41
0
  0
SEQEND
 8
0
  0
POLYLINE
  8
0
 62
     0
 66
     1
 10
0
 20
0
 30
0.0
 70
     1
 40
0
 41
0
  0
VERTEX
  8
0
 10
3.10867
 20
9.33072
 30
0.0
 40
0
 41
0
  0
VERTEX
  8
0
 10
3.1155
 20
9.33757
 30
0.0
 40
0
 41
0
  0
VERTEX
  8
0
 10
3.12235
 20
9.33072
 30
0.0
 40
0
 41
0
  0
VERTEX
  8
0
 10
3.1155
 20
9.32383
 30
0.0
 40
0
 41
0
  0
VERTEX
  8
0
 10
3.10867
 20
9.33072
 30
0.0
 40
0
 41
0
  0
SEQEND
 8
0
  0
POLYLINE
  8
0
 62
     0
 66
     1
 10
0
 20
0
 30
0.0
 70
     1
 40
0
 41
0
  0
VERTEX
  8
0
 10
5.89057
 20
9.44499
 30
0.0
 40
0
 41
0
  0
VERTEX
  8
0
 10
5.88639
 20
9.46631
 30
0.0
 40
0
 41
0
  0
VERTEX
  8
0
 10
5.896
 20
9.49283
 30
0.0
 40
0
 41
0
  0
VERTEX
  8
0
 10
5.90881
 20
9.51617
 30
0.0
 40
0
 41
0
  0
VERTEX
  8
0
 10
5.92199
 20
9.54878
 30
0.0
 40
0
 41
0
  0
VERTEX
  8
0
 10
5.93419
 20
9.58692
 30
0.0
 40
0
 41
0
  0
VERTEX
  8
0
 10
5.94407
 20
9.62679
 30
0.0
 40
0
 41
0
  0
VERTEX
  8
0
 10
5.95876
 20
9.67333
 30
0.0
 40
0
 41
0
  0
VERTEX
  8
0
 10
5.98329
 20
9.71674
 30
0.0
 40
0
 41
0
  0
VERTEX
  8
0
 10
6.01807
 20
9.75781
 30
0.0
 40
0
 41
0
  0
VERTEX
  8
0
 10
6.06375
 20
9.79747
 30
0.0
 40
0
 41
0
  0
VERTEX
  8
0
 10
6.09517
 20
9.81635
 30
0.0
 40
0
 41
0
  0
VERTEX
  8
0
 10
6.12972
 20
9.82226
 30
0.0
 40
0
 41
0
  0
VERTEX
  8
0
 10
6.15913
 20
9.8209
 30
0.0
 40
0
 41
0
  0
VERTEX
  8
0
 10
6.17817
 20
9.81446
 30
0.0
 40
0
 41
0
  0
VERTEX
  8
0
 10
6.18511
 20
9.80854
 30
0.0
 40
0
 41
0
  0
VERTEX
  8
0
 10
6.18707
 20
9.80186
 30
0.0
 40
0
 41
0
  0
VERTEX
  8
0
 10
6.18381
 20
9.79096
 30
0.0
 40
0
 41
0
  0
VERTEX
  8
0
 10
6.17503
 20
9.77208
 30
0.0
 40
0
 41
0
  0
VERTEX
  8
0
 10
6.15582
 20
9.73936
 30
0.0
 40
0
 41
0
  0
VERTEX
  8
0
 10
6.13222
 20
9.70708
 30
0.0
 40
0
 41
0
  0
VERTEX
  8
0
 10
6.118
 20
9.68901
 30
0.0
 40
0
 41
0
  0
VERTEX
  8
0
 10
6.10992
 20
9.67443
 30
0.0
 40
0
 41
0
  0
VERTEX
  8
0
 10
6.10622
 20
9.65918
 30
0.0
 40
0
 41
0
  0
VERTEX
  8
0
 10
6.10542
 20
9.639
 30
0.0
 40
0
 41
0
  0
VERTEX
  8
0
 10
6.10471
 20
9.6186
 30
0.0
 40
0
 41
0
  0
VERTEX
  8
0
 10
6.10129
 20
9.60488
 30
0.0
 40
0
 41
0
  0
VERTEX
  8
0
 10
6.0931
 20
9.59332
 30
0.0
 40
0
 41
0
  0
VERTEX
  8
0
 10
6.07818
 20
9.57954
 30
0.0
 40
0
 41
0
  0
VERTEX
  8
0
 10
6.0561
 20
9.55539
 30
0.0
 40
0
 41
0
  0
VERTEX
  8
0
 10
6.04372
 20
9.52968
 30
0.0
 40
0
 41
0
  0
VERTEX
  8
0
 10
6.01725
 20
9.48768
 30
0.0
 40
0
 41
0
  0
VERTEX
  8
0
 10
5.96485
 20
9.45324
 30
0.0
 40
0
 41
0
  0
VERTEX
  8
0
 10
5.94282
 20
9.44547
 30
0.0
 40
0
 41
0
  0
VERTEX
  8
0
 10
5.92057
 20
9.44125
 30
0.0
 40
0
 41
0
  0
VERTEX
  8
0
 10
5.90186
 20
9.44097
 30
0.0
 40
0
 41
0
  0
VERTEX
  8
0
 10
5.89057
 20
9.44499
 30
0.0
 40
0
 41
0
  0
SEQEND
 8
0
  0
POLYLINE
  8
0
 62
     0
 66
     1
 10
0
 20
0
 30
0.0
 70
     1
 40
0
 41
0
  0
VERTEX
  8
0
 10
3.80474
 20
10.1492
 30
0.0
 40
0
 41
0
  0
VERTEX
  8
0
 10
3.79443
 20
10.1804
 30
0.0
 40
0
 41
0
  0
VERTEX
  8
0
 10
3.78456
 20
10.2322
 30
0.0
 40
0
 41
0
  0
VERTEX
  8
0
 10
3.77806
 20
10.285
 30
0.0
 40
0
 41
0
  0
VERTEX
  8
0
 10
3.7781
 20
10.3192
 30
0.0
 40
0
 41
0
  0
VERTEX
  8
0
 10
3.78651
 20
10.358
 30
0.0
 40
0
 41
0
  0
VERTEX
  8
0
 10
3.79107
 20
10.3861
 30
0.0
 40
0
 41
0
  0
VERTEX
  8
0
 10
3.79221
 20
10.408
 30
0.0
 40
0
 41
0
  0
VERTEX
  8
0
 10
3.79047
 20
10.4279
 30
0.0
 40
0
 41
0
  0
VERTEX
  8
0
 10
3.78635
 20
10.4832
 30
0.0
 40
0
 41
0
  0
VERTEX
  8
0
 10
3.78711
 20
10.5475
 30
0.0
 40
0
 41
0
  0
VERTEX
  8
0
 10
3.7921
 20
10.6061
 30
0.0
 40
0
 41
0
  0
VERTEX
  8
0
 10
3.80057
 20
10.6439
 30
0.0
 40
0
 41
0
  0
VERTEX
  8
0
 10
3.81071
 20
10.6716
 30
0.0
 40
0
 41
0
  0
VERTEX
  8
0
 10
3.81799
 20
10.6988
 30
0.0
 40
0
 41
0
  0
VERTEX
  8
0
 10
3.82438
 20
10.7234
 30
0.0
 40
0
 41
0
  0
VERTEX
  8
0
 10
3.83274
 20
10.7445
 30
0.0
 40
0
 41
0
  0
VERTEX
  8
0
 10
3.83951
 20
10.7616
 30
0.0
 40
0
 41
0
  0
VERTEX
  8
0
 10
3.84239
 20
10.7762
 30
0.0
 40
0
 41
0
  0
VERTEX
  8
0
 10
3.84694
 20
10.7896
 30
0.0
 40
0
 41
0
  0
VERTEX
  8
0
 10
3.85824
 20
10.8035
 30
0.0
 40
0
 41
0
  0
VERTEX
  8
0
 10
3.87267
 20
10.8144
 30
0.0
 40
0
 41
0
  0
VERTEX
  8
0
 10
3.88667
 20
10.8188
 30
0.0
 40
0
 41
0
  0
VERTEX
  8
0
 10
3.89333
 20
10.8173
 30
0.0
 40
0
 41
0
  0
VERTEX
  8
0
 10
3.89649
 20
10.8098
 30
0.0
 40
0
 41
0
  0
VERTEX
  8
0
 10
3.89665
 20
10.7925
 30
0.0
 40
0
 41
0
  0
VERTEX
  8
0
 10
3.89447
 20
10.7611
 30
0.0
 40
0
 41
0
  0
VERTEX
  8
0
 10
3.88917
 20
10.7137
 30
0.0
 40
0
 41
0
  0
VERTEX
  8
0
 10
3.88303
 20
10.6806
 30
0.0
 40
0
 41
0
  0
VERTEX
  8
0
 10
3.86117
 20
10.5849
 30
0.0
 40
0
 41
0
  0
VERTEX
  8
0
 10
3.84944
 20
10.4862
 30
0.0
 40
0
 41
0
  0
VERTEX
  8
0
 10
3.84864
 20
10.3958
 30
0.0
 40
0
 41
0
  0
VERTEX
  8
0
 10
3.85949
 20
10.3251
 30
0.0
 40
0
 41
0
  0
VERTEX
  8
0
 10
3.87125
 20
10.2782
 30
0.0
 40
0
 41
0
  0
VERTEX
  8
0
 10
3.87446
 20
10.2416
 30
0.0
 40
0
 41
0
  0
VERTEX
  8
0
 10
3.86897
 20
10.2102
 30
0.0
 40
0
 41
0
  0
VERTEX
  8
0
 10
3.8546
 20
10.1781
 30
0.0
 40
0
 41
0
  0
VERTEX
  8
0
 10
3.83632
 20
10.1485
 30
0.0
 40
0
 41
0
  0
VERTEX
  8
0
 10
3.824
 20
10.1348
 30
0.0
 40
0
 41
0
  0
VERTEX
  8
0
 10
3.81494
 20
10.138
 30
0.0
 40
0
 41
0
  0
VERTEX
  8
0
 10
3.80474
 20
10.1492
 30
0.0
 40
0
 41
0
  0
SEQEND
 8
0
  0
POLYLINE
  8
0
 62
     0
 66
     1
 10
0
 20
0
 30
0.0
 70
     1
 40
0
 41
0
  0
VERTEX
  8
0
 10
4.32243
 20
10.1935
 30
0.0
 40
0
 41
0
  0
VERTEX
  8
0
 10
4.28982
 20
10.2319
 30
0.0
 40
0
 41
0
  0
VERTEX
  8
0
 10
4.25618
 20
10.2777
 30
0.0
 40
0
 41
0
  0
VERTEX
  8
0
 10
4.22314
 20
10.3261
 30
0.0
 40
0
 41
0
  0
VERTEX
  8
0
 10
4.19542
 20
10.365
 30
0.0
 40
0
 41
0
  0
VERTEX
  8
0
 10
4.17275
 20
10.3947
 30
0.0
 40
0
 41
0
  0
VERTEX
  8
0
 10
4.15517
 20
10.4153
 30
0.0
 40
0
 41
0
  0
VERTEX
  8
0
 10
4.14079
 20
10.4343
 30
0.0
 40
0
 41
0
  0
VERTEX
  8
0
 10
4.12847
 20
10.4571
 30
0.0
 40
0
 41
0
  0
VERTEX
  8
0
 10
4.1199
 20
10.4803
 30
0.0
 40
0
 41
0
  0
VERTEX
  8
0
 10
4.11669
 20
10.5001
 30
0.0
 40
0
 41
0
  0
VERTEX
  8
0
 10
4.12001
 20
10.5124
 30
0.0
 40
0
 41
0
  0
VERTEX
  8
0
 10
4.12804
 20
10.5198
 30
0.0
 40
0
 41
0
  0
VERTEX
  8
0
 10
4.13764
 20
10.5208
 30
0.0
 40
0
 41
0
  0
VERTEX
  8
0
 10
4.14578
 20
10.5139
 30
0.0
 40
0
 41
0
  0
VERTEX
  8
0
 10
4.16151
 20
10.4929
 30
0.0
 40
0
 41
0
  0
VERTEX
  8
0
 10
4.19114
 20
10.4571
 30
0.0
 40
0
 41
0
  0
VERTEX
  8
0
 10
4.22581
 20
10.4133
 30
0.0
 40
0
 41
0
  0
VERTEX
  8
0
 10
4.25396
 20
10.373
 30
0.0
 40
0
 41
0
  0
VERTEX
  8
0
 10
4.27169
 20
10.3454
 30
0.0
 40
0
 41
0
  0
VERTEX
  8
0
 10
4.28142
 20
10.3319
 30
0.0
 40
0
 41
0
  0
VERTEX
  8
0
 10
4.28901
 20
10.3225
 30
0.0
 40
0
 41
0
  0
VERTEX
  8
0
 10
4.30181
 20
10.3045
 30
0.0
 40
0
 41
0
  0
VERTEX
  8
0
 10
4.32167
 20
10.2782
 30
0.0
 40
0
 41
0
  0
VERTEX
  8
0
 10
4.34646
 20
10.2486
 30
0.0
 40
0
 41
0
  0
VERTEX
  8
0
 10
4.36957
 20
10.2179
 30
0.0
 40
0
 41
0
  0
VERTEX
  8
0
 10
4.38574
 20
10.1886
 30
0.0
 40
0
 41
0
  0
VERTEX
  8
0
 10
4.39675
 20
10.1605
 30
0.0
 40
0
 41
0
  0
VERTEX
  8
0
 10
4.37549
 20
10.1605
 30
0.0
 40
0
 41
0
  0
VERTEX
  8
0
 10
4.352
 20
10.1674
 30
0.0
 40
0
 41
0
  0
VERTEX
  8
0
 10
4.32243
 20
10.1935
 30
0.0
 40
0
 41
0
  0
SEQEND
 8
0
  0
POLYLINE
  8
0
 62
     0
 66
     1
 10
0
 20
0
 30
0.0
 70
     1
 40
0
 41
0
  0
VERTEX
  8
0
 10
3.70508
 20
10.4524
 30
0.0
 40
0
 41
0
  0
VERTEX
  8
0
 10
3.69385
 20
10.4968
 30
0.0
 40
0
 41
0
  0
VERTEX
  8
0
 10
3.69493
 20
10.5368
 30
0.0
 40
0
 41
0
  0
VERTEX
  8
0
 10
3.69857
 20
10.5691
 30
0.0
 40
0
 41
0
  0
VERTEX
  8
0
 10
3.70014
 20
10.5925
 30
0.0
 40
0
 41
0
  0
VERTEX
  8
0
 10
3.70221
 20
10.6389
 30
0.0
 40
0
 41
0
  0
VERTEX
  8
0
 10
3.70714
 20
10.6901
 30
0.0
 40
0
 41
0
  0
VERTEX
  8
0
 10
3.71343
 20
10.7337
 30
0.0
 40
0
 41
0
  0
VERTEX
  8
0
 10
3.71972
 20
10.758
 30
0.0
 40
0
 41
0
  0
VERTEX
  8
0
 10
3.72939
 20
10.7785
 30
0.0
 40
0
 41
0
  0
VERTEX
  8
0
 10
3.74018
 20
10.8051
 30
0.0
 40
0
 41
0
  0
VERTEX
  8
0
 10
3.7589
 20
10.8528
 30
0.0
 40
0
 41
0
  0
VERTEX
  8
0
 10
3.77664
 20
10.8914
 30
0.0
 40
0
 41
0
  0
VERTEX
  8
0
 10
3.79449
 20
10.9236
 30
0.0
 40
0
 41
0
  0
VERTEX
  8
0
 10
3.81392
 20
10.9519
 30
0.0
 40
0
 41
0
  0
VERTEX
  8
0
 10
3.83594
 20
10.979
 30
0.0
 40
0
 41
0
  0
VERTEX
  8
0
 10
3.84842
 20
10.9902
 30
0.0
 40
0
 41
0
  0
VERTEX
  8
0
 10
3.85531
 20
10.9848
 30
0.0
 40
0
 41
0
  0
VERTEX
  8
0
 10
3.86231
 20
10.9712
 30
0.0
 40
0
 41
0
  0
VERTEX
  8
0
 10
3.86768
 20
10.9537
 30
0.0
 40
0
 41
0
  0
VERTEX
  8
0
 10
3.86985
 20
10.9362
 30
0.0
 40
0
 41
0
  0
VERTEX
  8
0
 10
3.8655
 20
10.9082
 30
0.0
 40
0
 41
0
  0
VERTEX
  8
0
 10
3.85385
 20
10.8696
 30
0.0
 40
0
 41
0
  0
VERTEX
  8
0
 10
3.83669
 20
10.8258
 30
0.0
 40
0
 41
0
  0
VERTEX
  8
0
 10
3.81586
 20
10.7821
 30
0.0
 40
0
 41
0
  0
VERTEX
  8
0
 10
3.78885
 20
10.7279
 30
0.0
 40
0
 41
0
  0
VERTEX
  8
0
 10
3.77419
 20
10.686
 30
0.0
 40
0
 41
0
  0
VERTEX
  8
0
 10
3.76844
 20
10.6421
 30
0.0
 40
0
 41
0
  0
VERTEX
  8
0
 10
3.76822
 20
10.5815
 30
0.0
 40
0
 41
0
  0
VERTEX
  8
0
 10
3.76861
 20
10.5327
 30
0.0
 40
0
 41
0
  0
VERTEX
  8
0
 10
3.76687
 20
10.5007
 30
0.0
 40
0
 41
0
  0
VERTEX
  8
0
 10
3.76204
 20
10.4769
 30
0.0
 40
0
 41
0
  0
VERTEX
  8
0
 10
3.75299
 20
10.4524
 30
0.0
 40
0
 41
0
  0
VERTEX
  8
0
 10
3.73872
 20
10.423
 30
0.0
 40
0
 41
0
  0
VERTEX
  8
0
 10
3.72825
 20
10.4092
 30
0.0
 40
0
 41
0
  0
VERTEX
  8
0
 10
3.71821
 20
10.4204
 30
0.0
 40
0
 41
0
  0
VERTEX
  8
0
 10
3.70508
 20
10.4524
 30
0.0
 40
0
 41
0
  0
SEQEND
 8
0
  0
POLYLINE
  8
0
 62
     0
 66
     1
 10
0
 20
0
 30
0.0
 70
     1
 40
0
 41
0
  0
VERTEX
  8
0
 10
5.64253
 20
10.4828
 30
0.0
 40
0
 41
0
  0
VERTEX
  8
0
 10
5.64556
 20
10.4896
 30
0.0
 40
0
 41
0
  0
VERTEX
  8
0
 10
5.65283
 20
10.4828
 30
0.0
 40
0
 41
0
  0
VERTEX
  8
0
 10
5.64979
 20
10.4759
 30
0.0
 40
0
 41
0
  0
VERTEX
  8
0
 10
5.64253
 20
10.4828
 30
0.0
 40
0
 41
0
  0
SEQEND
 8
0
  0
POLYLINE
  8
0
 62
     0
 66
     1
 10
0
 20
0
 30
0.0
 70
     1
 40
0
 41
0
  0
VERTEX
  8
0
 10
3.63004
 20
10.7292
 30
0.0
 40
0
 41
0
  0
VERTEX
  8
0
 10
3.62403
 20
10.7629
 30
0.0
 40
0
 41
0
  0
VERTEX
  8
0
 10
3.64019
 20
10.8109
 30
0.0
 40
0
 41
0
  0
VERTEX
  8
0
 10
3.65224
 20
10.8393
 30
0.0
 40
0
 41
0
  0
VERTEX
  8
0
 10
3.65728
 20
10.856
 30
0.0
 40
0
 41
0
  0
VERTEX
  8
0
 10
3.6659
 20
10.8748
 30
0.0
 40
0
 41
0
  0
VERTEX
  8
0
 10
3.68668
 20
10.9084
 30
0.0
 40
0
 41
0
  0
VERTEX
  8
0
 10
3.71035
 20
10.9467
 30
0.0
 40
0
 41
0
  0
VERTEX
  8
0
 10
3.72592
 20
10.9766
 30
0.0
 40
0
 41
0
  0
VERTEX
  8
0
 10
3.74707
 20
11.017
 30
0.0
 40
0
 41
0
  0
VERTEX
  8
0
 10
3.77615
 20
11.0595
 30
0.0
 40
0
 41
0
  0
VERTEX
  8
0
 10
3.80474
 20
11.0932
 30
0.0
 40
0
 41
0
  0
VERTEX
  8
0
 10
3.82443
 20
11.1068
 30
0.0
 40
0
 41
0
  0
VERTEX
  8
0
 10
3.83376
 20
11.1111
 30
0.0
 40
0
 41
0
  0
VERTEX
  8
0
 10
3.84674
 20
11.1214
 30
0.0
 40
0
 41
0
  0
VERTEX
  8
0
 10
3.86268
 20
11.1316
 30
0.0
 40
0
 41
0
  0
VERTEX
  8
0
 10
3.87978
 20
11.1316
 30
0.0
 40
0
 41
0
  0
VERTEX
  8
0
 10
3.89328
 20
11.1222
 30
0.0
 40
0
 41
0
  0
VERTEX
  8
0
 10
3.898
 20
11.1056
 30
0.0
 40
0
 41
0
  0
VERTEX
  8
0
 10
3.89382
 20
11.0855
 30
0.0
 40
0
 41
0
  0
VERTEX
  8
0
 10
3.88069
 20
11.0658
 30
0.0
 40
0
 41
0
  0
VERTEX
  8
0
 10
3.84771
 20
11.0302
 30
0.0
 40
0
 41
0
  0
VERTEX
  8
0
 10
3.81912
 20
10.9965
 30
0.0
 40
0
 41
0
  0
VERTEX
  8
0
 10
3.79639
 20
10.9665
 30
0.0
 40
0
 41
0
  0
VERTEX
  8
0
 10
3.78108
 20
10.9423
 30
0.0
 40
0
 41
0
  0
VERTEX
  8
0
 10
3.76807
 20
10.9195
 30
0.0
 40
0
 41
0
  0
VERTEX
  8
0
 10
3.76004
 20
10.908
 30
0.0
 40
0
 41
0
  0
VERTEX
  8
0
 10
3.7494
 20
10.8939
 30
0.0
 40
0
 41
0
  0
VERTEX
  8
0
 10
3.73426
 20
10.867
 30
0.0
 40
0
 41
0
  0
VERTEX
  8
0
 10
3.71826
 20
10.8344
 30
0.0
 40
0
 41
0
  0
VERTEX
  8
0
 10
3.70503
 20
10.8028
 30
0.0
 40
0
 41
0
  0
VERTEX
  8
0
 10
3.69119
 20
10.7733
 30
0.0
 40
0
 41
0
  0
VERTEX
  8
0
 10
3.67361
 20
10.7452
 30
0.0
 40
0
 41
0
  0
VERTEX
  8
0
 10
3.65619
 20
10.7242
 30
0.0
 40
0
 41
0
  0
VERTEX
  8
0
 10
3.64307
 20
10.7159
 30
0.0
 40
0
 41
0
  0
VERTEX
  8
0
 10
3.63004
 20
10.7292
 30
0.0
 40
0
 41
0
  0
SEQEND
 8
0
  0
ENDSEC
  0
EOF
